Oops, an error
Loading. Please wait.

A Touch Of Evil Tab

version 2
version 2

Whole song

Interactive

9,820 views 30 this week
no commentswrite comment
1 2 3 4 5
accurate
x 4
add to favorites
launch autoscroll
font size
0
reset
how to read this tab
guitar tuner
Autoscroll
slow
fast
+/-
esc
set tempo
stop
Help us to improve Ultimate-Guitar.com Take our survey!
×
Difficulty
advanced
Band: judas priest
Song: a touch of evil
Álbum: painkiller
Version :2 

I found the solo in tab but I don't found the riff guitar solo and 
I only put the kk guitar, the main riff it's different to the first tab ,
 i had listened to ear the song to make this rifff 

enjoy

Keyboreds intro

In the live shows ,glenn tipton play this part in guitar 

E|14-15-14--------14-15-14--------14-15-14----------14-15-14-----|
B|---------17--17----------17--17----------17--17---------17--17-|
G|-----------16--------------16--------------16-------------16---|
D|---------------------------------------------------------------|(4x)
A|---------------------------------------------------------------|
E|---------------------------------------------------------------| 

Kk downing play this riff till the verse
Main riff 1
Play this in verse and the first intro 

E|------------------|-------------------|
B|------------------|-------------------|
G|--7/9-9-9-9--7\9--|-7/9-9-9-11-7-9----|
D|--7/9-9-9-9--7\9--|-7/9-9-9-11-7-9----| (x4)
A|--5/7-7-7-7--5\7--|-5/7-7-7-9--5-7----|
E|------------------|-------------------|

Prechorus 
Riff 2
|------------------------------|-------------------|
|------------------------------|-------------------|
|------------------------------|-------------------|
|-12/14--14-14-14---12--14-----|--7/9--9-99-9/7\9--| (x2)
|-10/12--12-12-12---10--12-----|--5/7--7-77-7/5\7--|
|------------------------------|-------------------|

Ater play the riff 2 play this part 
|------------------------------------------|
|------------------------------------------|
|------------------------------------------|
|--14/16--16-16-16-----16/17--17-17-17-----|
|--12/14--14-14-14-----14/15--15-15-15-----|
|------------------------------------------|

Riff 2(2 part)
|------------------------|----------------------------|
|------------------------|----------------------------|
|------------------------|----------------------------|
|--7s-9-9-9-9--7s-9------|--11s-12-12-12-12--12s-14---| (x2)
|--5s-7-7-7-7--5s-7------|---9s-10-10-10-10--10s-12---|
|------------------------|----------------------------|

E|----------------------------|
B|----------------------------|
G|----------------------------|
D|--11---12----14------16-----|
A|--9----10----12------14-----|
E|----------------------------|

Chorus 
Riff 3
E|---------------------------------------------|
B|---------------------------------------------|
G|--9--------4-/-5-------10/-9------5----7-----|
D|--9--------4-/-5-------10/-9------5----7-----|  (x2)
A|--7--------2-/-3--------8/-7------3----5-----|
E|---------------------------------------------|  

Brideg
 Riff 4
E|----------------------------|---------------------------------|
B|----------------------------|---------------------------------|
G|----------------------------|---------------------------------|
D|------9--------9----9-10-9--|------10--------10---9---7---7---|
A|--7-7------7-7--------------|--8-8-------8-8----8---8---7---7-| (X4)
E|----------------------------|---------------------------------| 

Riff 5  
this riff is to the glenn solo
 
E          C      E       F
|--------|------|-------|--------|
|--------|------|-------|--------|
|--------|------|-------|--------|
|--9-----|--5---|--9----|--------|
|--7-----|--3---|--7----|--3-----|
|--------|------|-------|--1-----|

Riff 6
|---------------|-----------------|----------|
|---------------|-----------------|----------|
|---------------|-----------------|----------|
|--9-------4----|-----5------2----|--4-------|
|--7-------2----|-----3------0----|--2-------|
|---------------|-----------------|----------|

Play 
Intro :( x4) play the same time with  the keyboard intro 
Main riff 1
Verse : (x4)
Main riff 1
Riff 2 (x2)
Riff 2 second part 
Riff 3 (x2)
Intro : (x2)
Main riff 1 
Verse : (x4)
Main riff 1
Riff 2 (x2)
Riff 2 second part 
Riff 3 (x2)
Brideg/riff 4 (x4)
Riff 5 solo glenn : (x6)
Riff 6
Riff 2 (x2)
Riff 2 second part 
Riff 3 (x2)
Intro : (x2)
Main riff 1 : play the same time with  the keyboard intro 

Suggest correction
What's this?
You can suggest a correction to this tab. Community and Mods will review your correction and vote to approve or reject it.
comments
print report bad tab
guest
You may want to rate the tab now too:
select rating
Please do not post tabs as comments. Select "correction" instead!