Oops, an error
Loading. Please wait.

All Guns Blazing Bass Tab

version 1
version 1

Whole song

Interactive

1,257 views 3 this week
no commentswrite comment
1 2 3 4 5
x 3
add to favorites
launch autoscroll
font size
0
reset
guitar tuner
Autoscroll
slow
fast
+/-
esc
set tempo
stop
Help us to improve Ultimate-Guitar.com Take our survey!
×
Difficulty
intermediate
Album: painkiller
Band: Judas priest
Song: all guns blazing

IAN HILL


Intro (riff)

|--------------------------------------------------------------|
|--------------------------------------------------------------|
|----------------------------------------------------3---2--0--| (x3)
|--0-2-2-2-2-2-2-2-3-2-2-2-2-2-2-2-0-2-2-2-3-2-2-2-2-----------|

Verse  riff

|--------------------------------------------------------------|
|--------------------------------------------------------------|
|----------------------------------------------3-3-3-3---3--3--|
|--0-2-2-2-2-2-2-2-3-2-2-2-2-2-2-2-0-0-0-0-0-0-----------------|

|--------------------------------------------------------------|
|--------------------------------------------------------------|
|----------------------------------------------------3---2--0--|
|--0-2-2-2-2-2-2-2-3-2-2-2-2-2-2-2-0-2-2-2-3-2-2-2-2-----------|

|----------------------------------------------------------|
|----------------------------------------------------------|
|----------------------------------------------------------|
|--0-2-2-2-2-2-2-2-3-2-2-2-2-2-2-2-0-0-0-0-0-0-0--0--------|

 Chorus riff 

|--------------------------------------------------------------|
|--------------------------------------------------------------|
|--0-0-0-0-0-0-0-0-1-0-0-0-0-0-0-0---0-0-0-1-0-0-0-------------|
|----------------------------------3---------------3--5--6--5--| (x2)

Solo riff
|--------------------------------------------------------------|
|--------------------------------------------------------------| (x2)
|--2-2-2-3-3-3-2-2-2-0-0-0-3--3--2-2-2-3-3-3-2-2-2-0-0-0-3--3--|
|--------------------------------------------------------------|

|--------------------------------------------------------------|
|--------------------------------------------------------------|
|--------------------------------------------------------------|
|--2-2-2-2-2-2-2-2-2-2-2-2-3--3--2-2-2-2-2-2-2-2-2-2-2-2-3--3--|
  
|----------------------------------------------------------------|
|----------------------------------------------------------------|
|----------------------------------------------------------------|
|--2-2-2-2-2-2-2-2-2-2-2-2-3--3--2-2-2-2-2-2-2-2-2-2-2-2-2-2-2-2-|

|------------------------------------------------------------------|
|------------------------------------------------------------------|
|--4-4-4-4-4-4-4-4-4-4-4-4-4-4-4-4-4-4-4-4-4-4-4-4-4-5-4---4-5-4---|
|--------------------------------------------------------7-------7-|
|                                                                     (x2)
|------------------------------------------------------------------|
|------------------------------------------------------------------|
|--4-4-4-4-4-4-4-4-4-4-4-4-4-4-4-4-4-4-4-4-4-4-4-4-----------------|
|--------------------------------------------------0-L-L-L-3-L-L-L-| 


|--------------------------------------------------------------|
|--------------------------------------------------------------|
|--------------------------------------------------------------|
|--5-5-5-6-6-6-5-5-5-3-3-3-5--5--5-5-5-6-6-6-5-5-5-3-3-3-5--5--|

|------------------------------------------------------|--------------------------------------|
|------------------------------------------------------|--------------------------------------|
|----------------------------------------4-------------|--------------------------------------|
|--5-5-5-6-6-6-5-5-5-3-3-3-5--5--5---6-------6---5--6--|--0--------1--------0--------1--------|
|------------------------------------------|-------------------------------|---------------------|
|------------------------------------------|-----------------3-------------|--3--2---------------|
|------------------------------------------|-------2----5------------------|--------5--7---------|
|--0----1----0----1----0----1----4----1----|--4-------------------0--------|--------------8------|


|--------------------------------------------|--------------------------------------------|
|--------------------------------------------|--------------------------------------------|
|--------------------------------------------|--------------------------------------------|
|--5----L----6-5----L---3--5--6--5--------L--|--5----L----6-5----L---3--5--6--5--------L--| (x4)

REPEAT 
Verse riff
Chorus riff 
Solo riff 

 End riff
|----------------------------------------|-----------------------------------------|
|----------------------------------------|-----------------------------------------|
|----------------------------------------|-----------------------------------------|
|--2--------3-2-------0--2--3--2---------|--2--------3-2-------0--2--3--2----------|

enjoy tab repeat the part and play a good song

Suggest correction
Give kudos to tab author, rate the tab!
1 2 3 4 5
comments
print report bad tab
guest
You may want to rate the tab now too:
select rating
Wanna post a correction for this tab? Suggest correction