Oops, an error
Loading. Please wait.

Angel Tab

version 2
version 2

Whole song

Interactive

57,295 views 108 this week
9 commentsread comments
1 2 3 4 5
x 46
add to favorites
launch autoscroll
font size
0
reset
how to read this tab
guitar tuner
Autoscroll
slow
fast
+/-
esc
set tempo
stop
Help us to improve Ultimate-Guitar.com Take our survey!
×
Author
[Guitar 1]
[Intro/Verse]
e|------------------------------------|
B|-----3-3--2-3-----------------------|
G|-----4-4-----------0-------2--------|
D|---4-4-4-------------0---2---2------|
A|-2---------------2-----0------------|
E|---------------3--------------------|

e|------------------------------------|
B|-----3-3--5-3-----------------------|
G|-----4-4-----------0-------2--------|
D|---4-4-4-------------0---2---2*-----|
A|-2---------------2-----0------------|
E|---------------3--------------------|

[Guitar 2]
(joins guitar 1 at * the first time)
e|-9-10-7--9-10-12-10-9-7-5-------7-7-|
B|--------------------------5-5/7-----|
G|------------------------------------|
D|------------------------------------|
A|------------------------------------|
E|------------------------------------|

e|------------------------------------|
B|-5-7-8-7-5--------------------------|
G|-----------7-6—4-4------------------|
D|----------------7-------------------|
A|------------------------------------|
E|------------------------------------|

[Pre-Chorus]
And I know we'll find a better place and peace of mind
e|-----3-----------2----------------------3--------2-----|
B|-----3-----------3----------------------3--------3-----|
G|-----4-----------4----------------------4--------4-----|
D|-----5-----------4----------------------5--------4-----|
A|-----5-----------2----------------------5--------2-----|
E|-----3----------------------------------3--------------|

Just tell me that it's all you want for you and me
e|-----------------3-----------------------------2-------|
B|-----------------3-------------0---------------2-------|
G|-----------------4-------------0---------------3-------|
D|-----------------5-------------2---------------4-------|
A|-----------------5-------------2---------------4-------|
E|-----------------3-------------0---------------2-------|

Angel won't you set me free.

(Go back to Verse Riff)
(Gtr. 1 and 2 at the same time)

[Pre-Chorus]
(it changes a bit, now you have both guitars playing)
(Guitar 1) 
(plays the same thing as in the first pre-chorus)
e|-----3-----------2----------------------3--------2-----|
B|-----3-----------3----------------------3--------3-----|
G|-----4-----------4----------------------4--------4-----|
D|-----5-----------4----------------------5--------4-----|
A|-----5-----------2----------------------5--------2-----|
E|-----3----------------------------------3--------------|

e|-----------------3-----------------------------2-------|
B|-----------------3-------------0---------------2-------|
G|-----------------4-------------0---------------3-------|
D|-----------------5-------------2---------------4-------|
A|-----------------5-------------2---------------4-------|
E|-----------------3-------------0---------------2-------|

[Guitar 2]
(do an arpeggio with the same chords as guitar one. These are just guidelines, I'm 
 entirely sure they're right)
e|--------------------------------------|
B|---------------------3-----3------3---|
G|-------4----4-----------4-----4-----4-| x2
D|-----5---5----5-----------4-----4-----|
A|---5-------5----5--2------------------|
E|-3------------------------------------|

e|----------------------------------------------------|
B|----------------------------------------------------|
G|-------4-----4----------0-----0---------3-----3-----|
D|-----5---5-----5----------2-----2---------4-----4---|
A|---5-------5-----5----2-----2-----2---4-----4-----4-|
E|-3------------------0---------------2---------------|

(After it says, "Angel Shine your light on me," go back to verse, but this time, the 
 guitar will play on an electric guitar. The riff changes a bit into a solo.
 
[Verse 3]
(Guitar 2)
(w/ distortion)
e|-9-10-7--9-10-12-10-9-7-5-------7-7-|
B|--------------------------5-5/7-----|
G|------------------------------------|
D|------------------------------------|
A|------------------------------------|
E|------------------------------------|

e|-9-10-12-10-17--17-15-14--14-15-14--------------------|
B|----------------------------------14-15--7/17-17b-----|
G|------------------------------------------------------|
D|------------------------------------------------------|
A|------------------------------------------------------|
E|------------------------------------------------------|

e|----------------------------------------------------|
B|-17-14h15p14-12-------------------------------------|
G|-------------------------------9-12-11--12-11-9---9-|
D|----------------3/9-9-11-12-12------------------9---|
A|----------------------------------------------------|
E|----------------------------------------------------|

(After, it changes into like a bridge. Only guitar 1 on this part)

[Guitar 1]
(Oh angel we will meet once more I'll pray)
e|-3---------------2----------------------------------|
B|-3---------------2----------------------------------|
G|-0---------------3----------------------------------|
D|-0---------------4----------------------------------|
A|-2---------------4----------------------------------|
E|-3---------------2----------------------------------|

    When all my sins are washed away
e|-2------------3-------------------------------------|
B|-3------------3-------------------------------------|
G|-4------------0-------------------------------------|
D|-4------------0-------------------------------------|
A|-2------------2-------------------------------------|
E|--------------3-------------------------------------|

   Hold me inside your wings and stay
e|-0----------2------------------2---------3----------|
B|-1----------2------------------3----0----3----------|
G|-0----------3------------------4----2----4----------|
D|-2----------4------------------4----2----5----------|
A|-3----------4------------------2----0----5----------|
E|------------2----------------------------3----------|

[Guitar 1]
(changes to electric when it says "away." Gtr.2 stays silent until halfway through the outro.)

 Oh, Angel take me far away
e|----------------------------------------------------|
B|----------------------------------------------------|
G|----------------------------------------------------|
D|------------------------9---------------------------|
A|------------------------9---------------------------|
E|------------------------7---------------------------|

               Put sad wings around me now
e|----------------------------------------------------|
B|----------------------------------------------------|
G|----------------------------------------------------|
D|-9-----5-----7-------------9------------------------|
A|-9-----5-----7-------------9------------------------|
E|-7-----3-----5-------------7------------------------|

   Angel take me far away (do a little plam mute on these chords)
e|----------------------------------------------------|
B|----------------------------------------------------|
G|----------------------------------------------------|
D|-5-------------7--------9---------------------------|
A|-5-------------7--------9---------------------------|
E|-3-------------5--------7---------------------------|

            Put sad wings around me now
e|----------------------------------------------------|
B|----------------------------------------------------|
G|----------------------------------------------------|
D|-----5--------7---------9---------------------------|
A|---5---5----7---7-------9---------------------------|
E|-3--------5-------------7---------------------------|

         So that we can rise again
e|----------------------------------------------------|
B|----------------------------------------------------|
G|----------------------------------------------------|
D|-9-------------5-------7------9---------------------|
A|-9-------------5-------7------9---------------------|
E|-7-------------3-------5------7---------------------|

[Guitar 2]
(plays this (goes along with the lyrics)
So that we can rise again))
e|----------------------------------------------------|
B|----------------------------------------------------|
G|----------------------------------------------------|
D|----------------------------------------------------|
A|-------------7--------------------------------------|
E|--7--9----10-----9---10-7---------------------------|

[Guitar 1]
(keeps playing the same thing throughout the outro, but now guitar 2 plays this along with the lyrics)
e|----------------------------------------------------|
B|--12---14b14b---16b16b----12------------------------|
G|----------------------------------------------------|
D|----------------------------------------------------|
A|----------------------------------------------------|
E|----------------------------------------------------|

[Outro]
e|-------------------2---|
B|-------------------3---|
G|------0-------2----4---|
D|--------0---2---2--4---|
A|----2-----0--------2---|
E|--3--------------------|
Suggest correction
comments
print report bad tab
9 comments total. Showing first comments.
+3 reply
Dr.Jazz 50 Aug 11, 2007 07:37 PM

very accurate top notch

+3 reply
Marjan1792 10 Oct 23, 2007 10:54 AM

good tab dude

+3 reply
ADEEOS24 10 Aug 06, 2008 08:03 PM

Very good tab

guest
You may want to rate the tab now too:
select rating
Wanna post a correction for this tab? Suggest correction