Oops, an error
Loading. Please wait.

Battle Hymn Bass Tab

version 1
version 1

Whole song

Interactive

404 views 1 this week
no commentswrite comment
1 2 3 4 5
please rate
add to favorites
launch autoscroll
font size
0
reset
guitar tuner
Autoscroll
slow
fast
+/-
esc
set tempo
stop
Help us to improve Ultimate-Guitar.com Take our survey!
×
Difficulty
intermediate
band: judas painkiller
album: painkiller
song: Battle Hymn

previous part to one shot of glory

G||---------|-------|
D||---------|-------|
A||---------|-------|
E||---------|-------|

|-------------------|-------------------|-------------------|
|-------------------|-------------------|-------------------|
|--2----2--2--2--2--|--2----2--2--2--2--|--2----2--2--2--2--|
|-------------------|-------------------|-------------------|

|-------------------|--------------|
|-------------------|--------------|
|--2----2--2--2--2--|--0----0----0-|
|-------------------|--------------|

|-----------------|--------|---------|----------|
|-----------------|--------|---------|----------|
|--0----0----0----|--5-----|--5------|----------|
|-----------------|--------|---------|--3-------|

|------------|-----------------|
|------------|-----------------|
|------------|-----------------|
|--3------3--|--3----3----3----|

|-----------------|--------------|------|------------|
|-----------------|--------------|------|------------|
|-----------------|--------------|------|------------|
|--3----3----3----|--2----2------|------|--2----2----|
Suggest correction
Give kudos to tab author, rate the tab!
1 2 3 4 5
comments
print report bad tab
guest
You may want to rate the tab now too:
select rating
Please do not post tabs as comments. Select "correction" instead!