Oops, an error
Loading. Please wait.

Battle Hymn Tab

version 2
version 2

Whole song

Interactive

1,153 views 1 this week
no commentswrite comment
1 2 3 4 5
please rate
add to favorites
launch autoscroll
font size
0
reset
how to read this tab
guitar tuner
Autoscroll
slow
fast
+/-
esc
set tempo
stop
Help us to improve Ultimate-Guitar.com Take our survey!
×
Difficulty
novice
Band :judas priest
Album:painkiller
Song: battle hymn

Tuning: standar
Guitar 1

E------------------------------------------------|
B------------------------------------------------|
G------------------------------------------------|
D------------------------------------------------|
A---------9--------------9--------------10-------|
E-7-9-10----10-9--7-9-10---10-9--7-9-10----10-9--|

E----------------------------------------------------|
B----------------------------------------------------|
G----------------------------------------------------|
D----------------------------------------------------|
A-------10-------------7-10-7----------7-10-7--------|
E7-9-10-----10-9--9-10--------10--9-10--------10-----

E---------------------------------------------------------------------------|
b---------------------------------------------------------------------------|
g---------------------------------------------------------------------------|
d---------------------------------------------------------------------------|
A----------10-12-14----------10-12-14-----------10-12-14-12-10----10--------|
E-10-12-14----------10-12-14-----------10-12-14----------------14----14-12--|

E-------------------------------------------------------------|
b-------------------------------------------------------------|
g-------------------------------------------------------------|
d-------------------------------------------------------------|
A----------10-12-13-12-10----10----------------9--------------|
E-10-12-14----------------14----14-12--9-10-12----12-10-------|

e---------------------------------------------------|
b---------------------------------------------------|
g---------------------------------------------------|
D---------------------------------------------------|
a---------------------------------------------------|
E-9-10-12-12-12-10-9--9-10-12-9-12-6----------------|

Guitar 2
E[--------------------------------------|
B[--------------------------------------|
G[-4--------------(4)-------------------| (x2)
D[-4--------------(4)-------------------|
A[-2--------------(2)-------------------|
E[--------------------------------------|

E[--------------------------------------|
B[--------------------------------------|
G[-6--------------(6)-------------------|
D[-6--------------(6)-------------------|
A[-4--------------(4)-------------------|
E[--------------------------------------|

E[--------------------------------------|
B[--------------------------------------|
G[-7--------------(7)-------------------|
D[-7--------------(7)-------------------|
A[-5--------------(5)-------------------|
E[--------------------------------------|

E[--------------------------------------|
B[--------------------------------------|
G[--------------------------------------|
D[-5--------------(5)-------------------|
A[-5--------------(5)-------------------|
E[-3--------------(3)-------------------|

E[--------------------------------------|
B[--------------------------------------|
G[--------------------------------------|
D[-9--------------(9)-------------------|
A[-7--------------(7)-------------------|
E[-0--------------(0)-------------------|

E[--------------------------------------|
B[--------------------------------------|
G[-6--------------(6)-------------------|
D[-6--------------(6)-------------------|
A[-4--------------(4)-------------------|
E[--------------------------------------|

E[---------------------------------------------------------|
B[---------------------------------------------------------|
G[---------------------------------------------------------|
D[-4--------------(4)--------------------3-------(3)-------|
A[-4--------------(4)--------------------1-------(1)-------|
E[-2--------------(2)--------------------------------------|
comments
We did not receive enough feedback on this tab! Please rate:
print report bad tab
1 2 3 4 5
I want to post or [tab]
guest
You may want to rate the tab now too:
select rating
Please do not post tabs as comments. Select "correction" instead!