Oops, an error
Loading. Please wait.

Better By You Better Than Me Bass Tab

version 1
version 1

Whole song

Interactive

1,789 views 1 this week
no commentswrite comment
1 2 3 4 5
please rate
add to favorites
launch autoscroll
font size
0
reset
guitar tuner
Autoscroll
slow
fast
+/-
esc
set tempo
stop
Help us to improve Ultimate-Guitar.com Take our survey!
×
Author
+++++++++++++++++++++++++++++++++++++++++++++++++++++++++++++++++++++++++++++++
Better By You, Better than Me - Judas Priest
+++++++++++++++++++++++++++++++++++++++++++++++++++++++++++++++++++++++++++++++

Song: Better by you, Better than me
Artist: Judas Priest
Album: Living after midnight

Main Riff

G|----------------------5-----------|---------------------------------|
D|--5h7-7-7-7--7--7--7--------------|--5h7-7-7-7--7--7p5--------------| x 3
A|----------------------------------|-------------------7--7-6--------|
E|----------------------------------|--------------------------5------|			

G|----------------------5-----------|----------------------3----------|
D|--5h7-7-7-7--7--7--7--------------|--3h5-5-5-5--5--5--5-----5-------|
A|----------------------------------|---------------------------------|
E|----------------------------------|---------------------------------|

Chorus

G|----------5---7------7------------|---------------------------------|
D|--7-------------------------------|---------------------------------|
A|-----------------------5----------|--8----8-8---7----7----7---------|
E|----------------------------------|---------------------------------|

1) Main riff (x2 instead of x3)
2) Riff A

Riff A

G|----------------------5-----------|---------------------------------|
D|--5h7-7-7-7--7--7--7--------------|--5h7-7-7-7--7--7-5--------------|
A|----------------------------------|--------------------7-6-5-3-0----|
E|----------------------------------|---------------------------------|

                                    |1.
G||-------------------3--------------|----------------3--5-----------||
D||*-5--5-5--5-5--5-5----------------|--5--5-5--5-5-5-------5-------*||
A||*---------------------------------|------------------------------*||
E||----------------------------------|-------------------------------||

 |2.
G|----------------------------------|--7h9p7--------------------------|
D|--5--5-5-5\7-\12h14p12------------|---------------------------------|
A|----------------------------------|---------------------------------|
E|----------------------------------|---------------------------------|

Riff B

G|----------------------------------|---------------------------------|
D|----------------------------------|---------------------------------|
A|----------------------------------|---------------------------------|
E|--10--10-10--10-10--10-10/---------|--/5--5-5--5-5--5-5\------------|			

G|----------------------------------|---------------------------------|
D|----------------------------------|---------------------------------|
A|----------------------------------|---------------------------------|
E|--\10--10-10--10-10--10-10--------|--10-10--10-10--10-10--10-10/-----|


G|----------------------------------|---------------------------------|
D|----------------------------------|---------------------------------|
A|----------------------------------|---------------------------------|
E|--6--6-6--6-6--6-6--6-------------|--5--5-5--5-5--5-5--5------------|


G|----------------------------------|
D|----------------------------------|
A|--5-------------------------------|
E|----------------------------------|

Main riff (x2 instead of x3)
Chorus
Riff A
Outro

Outro

G|----------------------------------|---------------------------------|
D|----------------------------------|---------------------------------|
A|----------------------------------|---------------------------------|
E|--10--10-10--10-10--10-10/---------|--/5--5-5--5-5--5-5\------------|			

G||----------------------------------|--------------------------------|
D||*---------------------------------|--------------------------------|
A||*---------------------------------|--------------------------------|
E||--\10--10-10--10-10--10-10--------|--10-10--10-10--10-10--10-10/---|


G|----------------------------------|--------------------------------||
D|----------------------------------|-------------------------------*||
A|----------------------------------|-------------------------------*||
E|--6--6-6--6-6--6-6--6-------------|--5--5-5--5-5--5-5--5-----------||


Repeat to fade..

++++++++++++++++++++++++++++++++++++++++++++++++++++++++++++++++++++++++++++
Suggest correction
Give kudos to tab author, rate the tab!
1 2 3 4 5
comments
print report bad tab
guest
You may want to rate the tab now too:
select rating
Please do not post tabs as comments. Select "correction" instead!