Oops, an error
Loading. Please wait.

Between The Hammer And The Anvil Bass Tab

version 1
version 1

Whole song

1,227 views 6 this week
no commentswrite comment
1 2 3 4 5
please rate
add to favorites
launch autoscroll
font size
0
reset
guitar tuner
Autoscroll
slow
fast
+/-
esc
set tempo
stop
Help us to improve Ultimate-Guitar.com Take our survey!
×
Difficulty
intermediate
Judas priest

Between The Hammer And The Anvil

Album: painkiller

Ian hill


main riff


--------------------------------------|--------------------------------------|
--------------------------------------|--------------------------------------|
--0--0--0--0--0--0--0--0--0--0--0--0--|--------------------------------------|
--------------------------------------|--2--2--2--2--2--2--2--2--2--2--2--2--|

------------------------------------|--------------------------------------|---------------------|
------------------------------------|--------------------------------------|---------------------|
3--3--3--3--3--3--3--3--3--3--3--3--|--------------------------------------|---------------------|
------------------------------------|--2--2--2--2--2--2--2--2--2--2--2--2--|--0--0--0--0--0--0--0|

Intro riff

------------------------|--------------------------|---------------------|
------------------------|--------------------------|---------------------|
----------------5~------|--------------------------|-----5----5----------|  (x2)
--0--0--0--0------------|--0--0--0--0--0--0--0--0--|--L------------------|

Verse  1 and 2 riff

---------------------------|------------------------|
---------------------------|------------------------|
---------------------------|----------------5~------|
|--0--0--0--0--0--0--0--0--|--0--0--0--0------------|

--------------------------|-----------------------|
--------------------------|-----------------------|
--3--3--3--3--3--3--3--3--|--3--3--3--3----5------|            (x4)
--------------------------|-----------------------|

Prechorus riff
           Silent          chorus:
-------------------|---------------------|-------------------|---------------------|
-------------------|---------------------|-------------------|-------2------1------|
--3----------------|--0------0------2----|-------------------|---------------------|
-------------------|---------------------|-------------------|--0------------------|

-----------------------|---------------------|-----------------------|
-----------------------|-------5------4------|--1------0-------------|
--3------2----0--------|---------------------|--------------0--------|
-----------------3--2--|--0------------------|-----------------3--2--|


Outro riff

---------------------------|--------------------------|
|--------------------------|--------------------------|
|--------------------------|--------------------------|
|--0--3--2--0--3--2--3--2--|--0--3--2--0--3--2--3--4--|

*main riff (x4)


Solo kk riff(riff verse)

Solo glenn tipton riff

-----------------------|-------------------|-------------------|------------------|--------------|
-----------------------|-------------------|-------------------|------------------|--------------|
--3--3--3--3----5------|--3----------------|--=----------------|--1---------------|--=-----------|
-----------------------|-------------------|-------------------|------------------|--------------|

-------------------|---------------------|-------------------|------------------|----------------|
-------------------|---------------------|-------------------|------------------|----------------|
-------------------|-----------3---------|-------------------|------------------|----------------|
--3----------------|--=-------------3----|--4----------------|--=---------------|--1-------------|

---------------------|-------------------|-------------------|------------------|----------------|
---------------------|-------------------|-------------------|------------------|----------------|
----------------0----|-------------------|-------------------|------------------|----------------|
--=--------3---------|--3----------------|--=----------------|--3---------------|--=-------------|

-----------------------|-------------------|-------------------|------------------|-------------|
------------1--0-------|-------------------|-------------------|------------------|-------------|
--3-----------------2--|--3----------------|-------------------|------------------|-------------|
-----------------------|-------------------|-------------------|------------------|-------------|


verse 3 riff
same  riff verse 1 and 2
prechorus
chorus
the end riff

|--------------------------|----------------------|----------------------|
|--------------------------|----------------------|----------------------|
|--------------------------|--5------5----3----3--|--=--0----2--------=--|
|--0--0--0--0--0--0--0--0--|----------------------|----------------------|

---------------------|------------------|
------------------0--|--2---------------|
--=------------=-----|------------------|
---------------------|------------------|

ths song was made in guitar pro y only put the tab for all the bassis and the  fans of 
priest enjoy and play
Suggest correction
Give kudos to tab author, rate the tab!
1 2 3 4 5
comments
print report bad tab
guest
You may want to rate the tab now too:
select rating
Please do not post tabs as comments. Select "correction" instead!