Oops, an error
Loading. Please wait.

Between The Hammer And The Anvil Bass Tab

version 2
version 2

Whole song

1,198 views 3 this week
no commentswrite comment
1 2 3 4 5
excellent!
x 1
add to favorites
launch autoscroll
font size
0
reset
guitar tuner
Tab Pro tools
  • play this tab
  • loop segment
  • change instrument
  • show fretboard
  • metronome
Autoscroll
slow
fast
+/-
esc
set tempo
stop
Difficulty
advanced
Band :Judas priest
Song  :Between The Hammer And The Anvil
Album: painkiller

I do this tab  because I saw the other tab of this song and the format it’s very bad and 
a good tab
main riff

the first part of intro

G ||-------------------|----------------------|
D ||-------------------|----------------------|
A ||-------------------|----------------------| (x3)
E ||--5----------2-----|--8-----------2-------|


The second of the intro
G|--------------------------------------|--------------------------------------|
D|--------------------------------------|--------------------------------------|
A|--0--0--0--0--0--0--0--0--0--0--0--0--|--------------------------------------|
E|--------------------------------------|--2--2--2--2--2--2--2--2--2--2--2--2--|

G|------------------------------------|--------------------------------------|
D|------------------------------------|--------------------------------------|
A|3--3--3--3--3--3--3--3--3--3--3--3--|--------------------------------------|
E|------------------------------------|--2--2--2--2--2--2--2--2--2--2--2--2--|
Intro riff

G|------------------------|--------------------------|----------------|
D|------------------------|--------------------------|----------------|
A|----------------5~------|--------------------------|----5----5------| (x2)
A|--0--0--0--0------------|--0--0--0--0--0--0--0--0--|----------------|

 Riff 1 /Verse  1

|--------------------------|------------------------|
|--------------------------|------------------------|
|--------------------------|----------------5~------|
|--0--0--0--0--0--0--0--0--|--0--0--0--0------------|

|--------------------------|-----------------------|
|--------------------------|-----------------------|
|--3--3--3--3--3--3--3--3--|--3--3--3--3----5------|   (x4)
|--------------------------|-----------------------|

Riff 2/ Prechorus
|-------------|---------------------|--------|
|-------------|---------------------|--------|
|--3----------|--0------0------2----|--------|
|-------------|---------------------|--------|

chorus:
|--------------------|-----------------------|
|-------2-----1------|-----------------------|
|--------------------|--3------2----0--------|
|--0-----------------|-----------------3--2--|

|--------------------|-----------------------|
|-------5-----4------|--1------0-------------|
|--------------------|--------------0--------|
|--0-----------------|-----------------3--2--|


Riff 1 verse
|--------------------------|------------------------|
|--------------------------|------------------------|
|--------------------------|----------------5~------|
|--0--0--0--0--0--0--0--0--|--0--0--0--0------------|

|--------------------------|-----------------------|
|--------------------------|-----------------------|
|--3--3--3--3--3--3--3--3--|--3--3--3--3----5------|   (x4)
|--------------------------|-----------------------|


Outro riff
---------------------------|--------------------------|
|--------------------------|--------------------------|
|--------------------------|--------------------------|
|--0--3--2--0--3--2--3--2--|--0--3--2--0--3--2--3--4--|

*main riff (x4)


Solo kk : riff(riff verse)
|--------------------------|------------------------|
|--------------------------|------------------------|
|--------------------------|----------------5~------|
|--0--0--0--0--0--0--0--0--|--0--0--0--0------------|

|--------------------------|-----------------------|
|--------------------------|-----------------------|
|--3--3--3--3--3--3--3--3--|--3--3--3--3----5------|   (x4)
|--------------------------|-----------------------|


Solo glenn tipton riff

This part of the riff is different in the other tab the bass line of this
part is very strange and I only created this part easy to all bass player can play this

G|-----------------------|---------|--------|-----------|
D|-----------------------|---------|--------|-----------|
A|--3--3--3--3----5------|--3------|--1-----|-----------|
E|-----------------------|---------|--------|--3--------|

G|---------------------|-----------|----------|
D|---------------------|-----------|----------|
A|-----------3---------|-----------|----------|
E|--=-------------3----|--4--------|--1-------|

G|---------------------|----------|----------|
D|---------------------|----------|----------|
A|----------------0----|----------|----------|
E|--=--------3---------|--3-------|--=-------|

G|----------------------|------------|
D|-----------1--0-------|------------|
A|--3----------------2--|--3---------|
E|----------------------|------------|

verse 3 riff
it’s the same  riff verse 1 and 2
prechorus
chorus
the end riff

|--------------------------|----------------------|----------------|
|--------------------------|----------------------|----------------|
|--------------------------|--5------5----3----3--|--=--0----2-----|
|--0--0--0--0--0--0--0--0--|----------------------|----------------|

|-------------|----------|
|----------0--|--2-------|
|--=----------|----------|
|-------------|----------|

************************************

| /   slide up
| \   slide down
| h   hammer-on
| p   pull-off
| ~   vibrato
| +   harmonic
| x   Mute note
| b   Bend
| pb  Pre-bend
| br  Bend release
| pbr Pre-bend release
| brb Bend release bend

************************************
Storm warning
But there's no fear
Lies forming
The sacrament lays bare

The sinner
Will testify
They'll suffer
When sacrificed on high

The burning sermons purge their evil words
Between the Hammer and the Anvil

Force rises
False rituals
Baptises
The body and the soul

Our union
Their fall from grace
Confession (confess your sins)
Will seal them to their fate

The burning sermons will survive their curse
Between the Hammer and the Anvil

Transgression
They prey on grief
Our mission
To purify belief

This altar
Gives power and light
They'll falter
While we are shining bright

The burning sermons consecrate their sin
Between the Hammer and the Anvil

Storm warning
But there's no fear.
comments
We did not receive enough feedback on this tab! Please rate:
print report bad tab
1 2 3 4 5
I want to post or [tab]
guest
You may want to rate the tab now too:
select rating
Please do not post tabs as comments. Select "correction" instead!