Oops, an error
Loading. Please wait.

Between The Hammer And The Anvil Tab

version 2
version 2

Whole song

10,188 views 33 this week
1 commentread comment
1 2 3 4 5
excellent!
x 5
add to favorites
launch autoscroll
font size
0
reset
how to read this tab
guitar tuner
Tab Pro tools
  • play this tab
  • loop segment
  • change instrument
  • show fretboard
  • metronome
×
Best way to learn
"Between The Hammer And The Anvil"
Autoscroll
slow
fast
+/-
esc
set tempo
stop
Difficulty
intermediate
JUDAS PRIEST - BETWEEN THE HAMMER AND THE ANVIL
(Painkiller, 1990)

Key
= after note = vibrato
^ after note = heavy vibrato 
 = slide down
/ = slide up
+ = tap
h = hammer
p = pull
n = natural harmonic
s = pinching harmonic (squeal)
* = tremolo pick
t = trill
b = bend
|-3-| = triplet

n number above the tab = play the first part then the first finishing part
 play the first part a second time and then play the second finishing part
 etc.


Riff 1

E|---------------------------------------|
B|---------------------------------------|
G|---------------------------------------|
D|-/7--------4--------/10--------4-------|
A|-/7--------4--------/10--------4-------|
E|-/5--------2--------/8 --------2-------|

Riff 1A

E |----------------------------------------|
B |----------------------------------------|
G |-/8--------5--------/11--------5--------|
D |-/8--------5--------/11--------5--------|
A |-/6--------3--------/9---------3--------|
E |----------------------------------------|

Riff 2

E |-------------------------------------------------------|
B |-------------------------------------------------------|
G |-------------------------------------------------------|
D |-----5-----5-----5-----5--4-------5-----5--5--4--7-----|
A |-----7-----7-----7-----7--5-------7-----7--7--5--5-----|
E |-0-0---0-0---0-0---0-0--------0-0---0-0----------------|

Riff 2A

E |-----------------------------------------------------------|
B |-----------------------------------------------------------|
G |-----4-----4-----4-----4--2-------4-----4---4--2-0-2--0----|
D |-2-2---2-2---2-2---2-2--------2-2---2-2---2-------------4--|
A |-----------------------------------------------------------|
E |-----------------------------------------------------------|

Riff 2B

E|----------------------------------------------------------------| |---|
B|----------------------------------------------------------------| |---|
G|----------------------------------------------------------------| |-7-|
D|-----5-----5-----5-----5--4-------5-----5--5--4--4--4--5--2--4--| |-7-|
A|-----7-----7-----7-----7--5-------7-----7--7--5--5--2--3--0--2--| |-5-|
E|-0-0---0-0---0-0---0-0--------0-0---0-0-------------------------| |---|


Riff 2C

E |------------------------------------------------------------------|
B |------------------------------------------------------------------|
G |-----4-----4-----4-----4--2-------4-----4---4--2-0-2--0---0-------|
D |-2-2---2-2---2-2---2-2--------2-2---2-2---2-------------4----2--4-|
A |------------------------------------------------------------------|
E |------------------------------------------------------------------|


Riff 3

E|------------------------------------------------------------|
B|------------------------------------------------------------|
G|--------------------------------------------------------7---|
D|-----5-----5-----5-----5--4-------2-----2-----2-----2---7---|
A|-----7-----7-----7-----7--5---3-3-3-3-3-3-3-3-3-3-3-3-3-5---|
E|-0-0---0-0---0-0---0-0--------------------------------------|


|------------------------------------------------------------|
|------------------------------------------------------------|
|--------------------------------------------------------7---|
|----5-----5-----5-----5--4--------2-----2-----2-----2---7---|
|----7-----7-----7-----7--5----3-3-3-3-3-3-3-3-3-3-3-3-3-5---|
|0-0---0-0---0-0---0-0---------------------------------------|


Riff 3A

 
E|--------------------------------------------------------------|
B|--------------------------------------------------------------|
G|-----4-----4-----4-----4--s2----------------------------------|
D|-----------------------------------5-----5-----5-----5---s4---|
A|-------------------------------3-3---3-3---3-3---3-3---3------|
E|-0-0---0-0---0-0---0-0----------------------------------------|

|---------------------------------------------------|
|---------------------------------------------------|
|-----4-----4-----4-2-0-2-----------------4---------|
|--------------------------5-4--2-----4-5-----------|
|---------------------------------------------------|
|-0-0---0-0---0-0-----------------------------------|

2
E |-------------------------------------------------------|
B |-------------------------------------------------------|
G |-----4-----4-----4-2-0-2-----------------------4-------|
D |--------------------------5-4--2-------4-5-4-2----5-4--|
A |-------------------------------------------------------|
E |-0-0---0-0---0-0---------------------------------------|

Riff 3B

 1 
E|------------------------------| |--------------------------------|
B|------------------------------| |--------------------------------| 
G|------------------------------| |---------------------------7-7--| 
D|-----5-----5-----5-----4--4---| |-----2-----2-----2-----2---7-7--| 
A|-----7-----7-----7-----5--5---| |-3-3-3-3-3-3-3-3-3-3-3-3-3-5-5--| 
E|-0-0---0-0---0-0---0-0--------| |--------------------------------| 


|--------------------------------|
|--------------------------------|
|---------------------------4--4-|
|-----2-----2-----2-----2---4--4-| 2
|-3-3-3-3-3-3-3-3-3-3-3-3-3-2--2-|
|--------------------------------|


Riff 4

E |-------------------------------------|
B |-------------------------------------|
G |-5----------------2---5---4----------|
D |-5----------------2---5---4----------|
A |-3----------------0---3---2----------|
E |-------------------------------------|

Riff 4A

E|----------------------------------------------------|
B|----------------------------------------------------|
G|-7----5----4----2----0----0-4-2--9-9-11-11-12-12-14-|
D|----------------------------------------------------|
A|---------------------------------7-7-9--9--10-10-12-|
E|----------------------------------------------------|

Riff 5

E|--------------------------------------------------|
B|--------------------------------------------------|
G|----9---8---4---4---------------------------------|
D|----9---8---5---4-----------5---4---1---0---------|
A|----7---6---3---2-----------7---6---3---2---------|
E|-0-----------------0-3-2-0------------------0-3-2-|

Riff 6

E|---------------------------------|
B|---------------------------------|
G|---------------------------------|
D|---------------------------------|
A|---------------------------------|
E|-0-3-2-0-3-2-3-2-0-3-2-0-3-2-3-4-|

Riff 7

E|------------------------------------------------------------------------------------|
B|------------------------------------------------------------------------------------|
G|-6--------------------------------------------5-------------------------------------|
D|-6--------------8----------------5------------5--5--6----------------3-----------5--|
A|-3--------------8----------------5------------3--5--6----------------3-----------5--|
E|----------------6----------------3---------------3--4----------------1-----------3--|


|------------------------------------|
|------------------------------------|
|------------------------------------|
|6--5----------------5---------------|
|6--5----------------5---------------|
|4--3----------------3---------------|



E |----------------------|
B |----------------------|
G |-5----8-7-------------|
D |-5----8-7-8-10--------|
A |-3----6-5-8-10--------|
E |----------6-8---------|

|-3-|

Riff 8

E |------------------------|
B |------------------------|
G |-/9----6----/12----6----|
D |-/9----6----/12----6----|
A |-/7----4----/10----4----|
E -------------------------|


Order

Riff 1 x 2
Riff 1/1A x 2
Riff 2 x 2
Riff 3 x 2
Riff 4 x 2
Riff 5 x 1
Riff 3/3A x 2
Riff 4/4A x 1
Riff 5 x 1
Riff 6 x 1
Riff 1 x 4
Riff 1/1A x 2
Solo over Riff 3B x 4
Solo over Riff 7 x 1
Riff 2 x 2
Riff 3/3A x 2
Riff 4/4A x 1
Riff 5 x 2
Riff 2 x 2
Riff 2/2A x 1
Riff 2B/2C x 1
Riff 8 until fade
comments
print report bad tab
1 comment total.
0 reply
kolinzo wrote on November 10 2013, 09:14 am

I think at the beginning there was another sound, a bit higher, or it was another guitar. Can you tell me how should I play it?

I want to post or [tab]
guest
You may want to rate the tab now too:
select rating
Please do not post tabs as comments. Select "correction" instead!