Oops, an error
Loading. Please wait.

Beyond The Realms Of Death Tab

version 1
version 1
25,833 views 39 this week
6 commentsread comments
1 2 3 4 5
x 13
add to favorites
launch autoscroll
font size
0
reset
how to read this tab
guitar tuner
backing track
0:00
0:00
Autoscroll
slow
fast
+/-
esc
set tempo
stop
Difficulty
intermediate
From guitar pro tab, I take no responsibility for it

 opening solo
e|----------------------------------------------|
B|----------------------------------------------|
G|----------------------------------------------|
D|----------------------------------------------|
A|-14----17-16-14----17-16-14-----14s2s21~~~~---|
E|----------------------------------------------|

 First one(glenn)
e|-----------------------------------------------------------------------|
B|----------------------------------------------17b(19)--17b(19)~~~~-----|
G|--16-14------------------------------------14--------------------------|
D|------------------------------------14---16----------------------------|
A|----------17-16-------------14-17-16---17------------------------------|
E|----------------17-13-14-17--------------------------------------------|

e|--17---------------------------------------14-12--------|
B|-------17b(19)------15-17---15b(17)---------------------|
G|--------------------------16----------------------------|
D|--------------------------------------------------------|
A|--------------------------------------------------------|
E|--------------------------------------------------------|

e|--------17------------------------------------------------------|
B|--15-14----14-15---14-------------------------------------------|
G|----------------16----16-14-16-14-------14----------------------|
D|----------------------------------14-16----16-15-14---14--------|
A|----------------------------------------------------17----------|
E|----------------------------------------------------------------|

e|-----------------------------------------------------------------|
B|-----------------------------------------------------------------|
G|-----------14-----------------------------------9-12-11----------|
D|--16---------------------9----9-11-12--------------------9-11-12-|
A|-------17------16-17-------------------9-10-12-------------------|
E|-----------------------------------------------------------------|

e|------------10-----10-----14-----14--------------------------------|
B|------10-12----12-----12-----12-----12-14-15----12-14-15-14--------|
G|-9-11--------------------------------------------------------------|
D|-------------------------------------------------------------------|
A|-------------------------------------------------------------------|
E|-------------------------------------------------------------------|

e|-----------------14-----------------------------------------------|
B|--14-15-12-14-12----12--11-----10b(12)----12-10-------------------|
G|------------------------------------------------11-9-10-9---------|
D|----------------------------------------------------------12------|
A|------------------------------------------------------------------|
E|------------------------------------------------------------------|

e|--------------------------------------------------------------------------|
B|----------------12-10-----------------------------------------------------|
G|-9-----------11-------11-7-9b(11)-9-7--9b(11)----9b(11)--9-11-9-7-9-7--9--|
D|----12----------------------------------------------------------------7---|
A|--------------------------------------------------------------------------|
E|--------------------------------------------------------------------------|

e|---------------------------------------------------------------------|
B|---------------------------------------------------------------------|
G|--9-11-11-11-11-9-9-9-9-7-7-7-7-6-6-7--------------------------------|
D|---------------------------------------9-----9-11-12-9---14-12-11-9--|
A|---------------------------------------------------------------------|
E|---------------------------------------------------------------------|

e|----------------------------------------------------------------|
B|------------------------------------------------10--------------|
G|-------6-7---6-7-9-7---9---9b(11)-9b(11)--9-7-6----9b(11)-9-7---|
D|--12-9----------------------------------------------------------|
A|----------------------------------------------------------------|
E|----------------------------------------------------------------|

e|-----------------7------------------7--------7---------------------|
B|-10b(12)-10b(12)~-10-7-10-10b(12)-----10-7--7-10-7--7--------------|
G|-------------------------------------------9-------9--9-7-9-7--7---|
D|--------------------------------------------------------------9----|
A|-------------------------------------------------------------------|
E|-------------------------------------------------------------------|

e|------------------------------------------------------------------------|
B|--------------------------------------------------7-7-7-7-10-10-10-10---|
G|----------------------------------------7---7-9-9-----------------------|
D|-9-7-9-7------------------------7---7s9---9-----------------------------|
A|---------9--7--7h8--7s5-5s7-7s9---9-------------------------------------|
E|------------------------------------------------------------------------|

e|--------------------------------------12---------------------|
B|-12-12-15---12----15-12------12-14-15------------------------|
G|-------------------------------------------------------------|
D|-------------------------------------------------------------|
A|-------------------------------------------------------------|
E|-------------------------------------------------------------|

e|----------14------14-15---14-15----14-15---14-15-17--17b(19)--17(19)~~--|
B|-14-15-17---15-17------17-------17-------17-----------------------------|
G|------------------------------------------------------------------------|
D|------------------------------------------------------------------------|
A|------------------------------------------------------------------------|
E|------------------------------------------------------------------------|

e|-17-15-14-15-17-15-14-----14--17-14-15-14----14-15-14---------------|
B|----------------------17------------------17----------17b(19)-------|
G|--------------------------------------------------------------------|
D|--------------------------------------------------------------------|
A|--------------------------------------------------------------------|
E|--------------------------------------------------------------------|

e|------------22-----------22----------------17----------------|
B|-22-22b(24)----22-22b(24)--22b(24)rb22--19---19-17-19-17-----|
G|-------------------------------------------------------------|
D|-------------------------------------------------------------|
A|-------------------------------------------------------------|
E|-------------------------------------------------------------|

e|--------14-17-14--------14-17-14--------14-17-14-19-14-17-14-19-14-17-14-19-|
B|-17b(19)---------17b(19)---------17b(19)------------------------------------|
G|----------------------------------------------------------------------------|
D|----------------------------------------------------------------------------|
A|----------------------------------------------------------------------------|
E|----------------------------------------------------------------------------|

e|-17b(19)-19-21-22-22b(24)-22-21-19-17----------------------------|
B|-----------------------------------------------------------------|
G|---------------------------------------19-18-----------19~~~~~~~-|
D|-----------------------------------------------------------------|
A|-----------------------------------------------------------------|
E|-----------------------------------------------------------------|

e|-----------------------------------|
B|-----------------------------------|
G|--19-----------------------19s0----|
D|-----------------------------------|
A|-----------------------------------|
E|-----------------------------------|

Thats what Im talking about.

Now, KK's solo.

e|-----------------------------------------------------------------------|
B|-10b(12)-----------------------------------------------------7--10-7---|
G|----------9-7--------9-7---9-7-9-7-9-9b(11)-9b(11)-9-7-9--9----------9-|
D|-------------9---7-9---------------------------------------------------|
A|-----------------------------------------------------------------------|
E|-----------------------------------------------------------------------|

e|-------------------------------------------10-7--------------------|
B|-7--10-7----7--10-7----10b(12)----10b(12)-------10--10-7-10--7---7-|
G|---------9----------9------------------------------------------9---|
D|-------------------------------------------------------------------|
A|-------------------------------------------------------------------|
E|-------------------------------------------------------------------|

e|--------------------------10-7---12-7---10-7---12-7---10-7---12-7----|
B|---7-10---7---7---------------10-----10-----10-----10-----10-----10--|
G|-9----------9-----9-7------------------------------------------------|
D|----------------------9----------------------------------------------|
A|---------------------------------------------------------------------|
E|---------------------------------------------------------------------|

e|-7-10-10b(12)--10b(12)-10-7-10-9-7------------------------|
B|-----------------------------------10-9-------------------|
G|----------------------------------------9-6-7-6-----------|
D|------------------------------------------------7-9-------|
A|----------------------------------------------------------|
E|----------------------------------------------------------|

e|-----------------------------------------|
B|-7b(9)----7-7b(9)----7-7b(9)----7-7b(9)--|
G|-9b(11)---9-9b(11)---9-9b(11----9-9b(11)-|
D|-----------------------------------------|
A|-----------------------------------------|
E|-----------------------------------------|

e|-12b(14)--12b(14)---12b(14)---10----|
B|---------------------------------12-|
G|------------------------------------|
D|------------------------------------|
A|------------------------------------|
E|------------------------------------|

e|----------14----------14------------14----|
B|----------12----------12------------12----|
G|16////////--16///////---16//////////------|
D|------------------------------------------|
A|------------------------------------------|
E|------------------------------------------|

e|-22-19--22-19--22-19--22-19--22-19--22-19--19-22b(24)-24b(26)--19s0--|
B|------22-----22-----22-----22-----22-----22--------------------19s0--|
G|---------------------------------------------------------------------|
D|---------------------------------------------------------------------|
A|---------------------------------------------------------------------|
E|---------------------------------------------------------------------|

Fucking great.

Rhythm behind Glenn's

e|--------------------------------------------------------|
B|--------------------------------------------------------|
G|--------------------------------------------------------|
D|--------------------------------------------------------|
A|-2--2-2--4---------9---9---------7---7----------5---5---|
E|-0--0-0--2---------7---7---------5---5----------3---3---|

Repeat until end of solo

Rhythm behind KK's

e|---------------------------------------------------------------|
B|---------------------------------------------------------------|
G|---------------------------------------------------------------|
D|---------------------------------------------------------------|
A|-7-9-9-9-9--9-9-7-9-9-9-9--9-9--9-9-9-9-9--9-9-7-9-11-12--11---|
E|-5-7-7-7-7--7-7-5-7-7-7-7--7-7--7-7-7-7-7--7-7-5-7-9--10--9----|

Repeat until end

Last part of song

e|------------------------------------|x3
B|------------------------------------|
G|------------------------------------|
D|--2-4----4--------------------------|
A|--0-2----2--------------------------|
E|------------------------------------|

e|--------------------------|
B|--------------------------|
G|--------------------------|
D|-2-4-6-7----6-------------|
A|-0-2-4-5----4--4----------|
E|---------------2----------|


************************************

| ~  Vibrato
| h  Hammer-on
| /  Slide up

************************************
Suggest correction
comments
print report bad tab
6 comments total. Showing first comments.
+4 reply
ShredHead396 200 Jun 15, 2009 04:35 AM

Are you joking...
This tab looks very,very good

0 reply
J0RD4NK1N9 66 Aug 29, 2009 10:48 AM

this is good but it isn't exactly how the band play it

0 reply
NYTrainman 10 Nov 16, 2013 02:28 PM

well... off the bat... the opening lead should be 14-16-17-14. he's got the 16-17 part backwards. haven't read further yet.

guest
You may want to rate the tab now too:
select rating
Wanna post a correction for this tab? Suggest correction