Oops, an error
Loading. Please wait.

Beyond The Realms Of Death Bass

version 2
version 2
579 views 1 this week
no commentswrite comment
1 2 3 4 5
x 4
add to favorites
launch autoscroll
font size
0
reset
guitar tuner
backing track
0:00
0:00
×
Best way to learn
"Beyond The Realms Of Death"
Autoscroll
slow
fast
+/-
esc
set tempo
stop
Author
Difficulty
novice
Song: Beyond The Realms Of Death
Band: Judas Priest
Album: Stained Class
Bassist: Ian Hill
Composer: Halford, Les Binks 
Tabbed by: FLBatista
Tunning: Standard Tuning (E A D G)


Verse:

G|-------------------------------------|
D|---------4-------------------------4-|
A|-9/-2~-----0~---2------5-------------|
E|------------------3~-----0-00-2~-----|
 
G|----------------------------------|
D|------4-------------------------4-|
A|-2~-----0~---2------5-------------|
E|---------------3~-----0-00-2~-----|x2

G|-------------------------|
D|------4------------------|
A|-2~-----0~---2-----------|
E|---------------3~---2~---|


Chorus:

G|--------------------------------|
D|--------------------------------|
A|-0h2--2--0h2--2--0h2--2--0245-4-|
E|--------------------------------|x3

G|------------------------------------|
D|------------------------------------|
A|-0h2--2--0h2--2--0h2--2--0245--4----|
E|--------------------------------2~--|

 
Verse 2:

G|----------------------------------|
D|------4-------------------------4-|
A|-2~-----0~---2------5-------------|
E|---------------3~-----0-00-2~-----|x3

G|------------------------|
D|-----4------------------|
A|-2~----0~---2-----------|
E|--------------3~---2~---|


Chorus 2:

G|--------------------------------|
D|--------------------------------|
A|-0h2--2--0h2--2--0h2--2--0245-4-|
E|--------------------------------|x4


Bridge:

G|---------------------------------|
D|---------------------------------|
A|---------------------------------|
E|-0h2(x7)-0h2(x7)-0h2(x7)-0h2(x7)-|

G|-----------------------------|
D|-----------------------------|
A|-5h7(x7)-5h7(x7)-5h7(x7)-7~--|
E|-----------------------------|

G|--------------------------------|
D|--------------------------------|
A|-0h2--2--0h2--2--0h2--2--0245-4-|
E|--------------------------------|x2

G|-----------------------|
D|-----------------------|
A|-2-22~---0-00~---------|
E|----------------3-33~--|


First Solo (Glenn Tipton)

G|---------------|
D|---------4-----|
A|-----------4-3-|
E|-0-00-2--------|

G|-------4-----------2------------------------------|
D|---------4-----------2---------5------------4-----|
A|-2-22------2-0-00------0---------5------------4-3-|
E|-------------------------3-33------3-0-00-2-------|x3

G|-------4-----------2--------------------------------|
D|---------4-----------2/7---------5------------4-----|
A|-2-22------2-0-00--------7---------5------------4-3-|
E|---------------------------3-33------3-0-00-2-------|

G|-------4-----------2-----9--------------------------|
D|---------4-----------2/7---------5------------4-----|
A|-2-22------2-0-00------------------5------------4-3-|
E|---------------------------3-33------3-0-00-2-------|

G|-------4------------------14------------------------------|
D|---------4-----------7/14----7-5-55------5----------4-----|
A|-2-22------2-0-00-/7----------------5\-----5----------4-3-|
E|--------------------------------------3-3----0-00-2-------|

G|-------4------------2-------------------------|
D|---------4-------/2---2/7---------5-----------|
A|-2-22------2-0-00---------7---------5---------|
E|----------------------------3-33------3-2~----|

G|----------------------------------|
D|------4-------------------------4-|
A|-2~-----0~---2------5-------------|
E|---------------3~-----0-00-2~-----|


Verse 3:

G|----------------------------------|
D|------4-------------------------4-|
A|-2~-----0~---2------5-------------|
E|---------------3~-----0-00-2~-----|x3

G|------------------------|
D|-----4------------------|
A|-2~----0~---2-----------|
E|--------------3~---2~---|


Chorus 3:

G|--------------------------------|
D|--------------------------------|
A|-0h2--2--0h2--2--0h2--2--0245-4-|
E|--------------------------------|x4


Bridge:

G|---------------------------------|
D|---------------------------------|
A|---------------------------------|
E|-0h2(x7)-0h2(x7)-0h2(x7)-0h2(x7)-|

G|-----------------------------|
D|-----------------------------|
A|-5h7(x7)-5h7(x7)-5h7(x7)-7~--|
E|-----------------------------|


Secound Solo (K.K Downing):

G|-----------------------------------|
D|-----------------------------------|
A|-0h2222-220h2222-220h2222-220245-4-|
E|-----------------------------------|x6


Outro:

G|--------------------------------|
D|--------------------------------|
A|-0h2--2--0h2--2--0h2--2--0245-4-|
E|--------------------------------|

G|-------------------------------------|
D|-------------------------------------|
A|-0h2--2--0h2--2--0h2--2--0245--4-----|
E|--------------------------------2~---|


LEG:

 / : Slide Up
 \ : Slide Down
 h : Hammer On
 p : Pull Off
 ~ : Let Ring
Suggest correction
comments
print report bad tab
guest
You may want to rate the tab now too:
select rating
Wanna post a correction for this tab? Suggest correction