Oops, an error
Loading. Please wait.

Beyond The Realms Of Death Tab

version 2
version 2
2,804 views 1 this week
2 commentsread comments
1 2 3 4 5
not so good
x 4
add to favorites
launch autoscroll
font size
0
reset
how to read this tab
guitar tuner
Tab Pro tools
  • play this tab
  • loop segment
  • change instrument
  • show fretboard
  • metronome
Autoscroll
slow
fast
+/-
esc
set tempo
stop
Difficulty
novice
Riff A (Clean)
|-----------0----------------0----------------0---------------------|
|--------0----3-----------0----3----------------3-------------------|
|------4--------4-------4--------4---------4------4-----------------|
|----4------------4---4------------4-----4----------4--2--2-2--4----|
|--2----------------0------------------2---------------2--2-2--4----|
|------------------------------------3-----------------0--0-0--2----|

Riff B
|--------------------------------------|
|--------------------------------------|
|--2-4--4--2-4--4--2-4--4--2-4-6-7-6---|
|--2-4--4--2-4--4--2-4--4--2-4-6-7-6---|
|--0-2--2--0-2--2--0-2--2--0-2-4-5-4---|
|--------------------------------------|

Riff C
|-----------------|
|-----------------|
|--2-4-6-7--6-----|
|--2-4-6-7--6--4--|
|--0-2-4-5--4--4--|
|--------------2--|

Riff D
|------------------------------------------------|
|------------------------------------------------|
|------------------------------------------------|
|------------------------------------------------|
|--2h4--------2h4--------2h4--------2h4----------|
|--2h2-222222-2h2-222222-2h2-222222-2h2-222222---|

Riff E
|------------------------------------------------|
|------------------------------------------------|
|------------------------------------------------|
|------------------------------------------------|
|--0h2--------0h2--------0h2--------0h2----------|
|--0h0-000000-0h0-000000-0h0-000000-0h0-000000---|

Riff F
|---------------------------------|
|---------------------------------|
|--4--4-4--2--2-2-----------------|
|--4--4-4--2--2-2--5--5-5--2--4---|
|--2--2-2--0--0-0--5--5-5--2--4---|
|------------------3--3-3--0--2---|

Riff G
|-------------------------------------------|
|-------------------------------------------|
|-------------------------------------------|
|--2-4-------2-4-------2-4------2-4-6-7-6---|
|--0-2222222-0-2222222-0-222222-0-2-4-5-4---|
|-------------------------------------------|
comments
print report bad tab
2 comments total.
0 reply
RealThing wrote on February 3 2007, 07:01 pm

Totally Wrong.

0 reply
comaboy wrote on September 21 2007, 05:30 pm

what the hell is this?

I want to post or [tab]
guest
You may want to rate the tab now too:
select rating
Please do not post tabs as comments. Select "correction" instead!