Oops, an error
Loading. Please wait.

Beyond The Realms Of Death Tab

version 3
version 3
7,153 views 9 this week
2 commentsread comments
1 2 3 4 5
accurate
x 6
add to favorites
launch autoscroll
font size
0
reset
how to read this tab
guitar tuner
Tab Pro tools
  • play this tab
  • loop segment
  • change instrument
  • show fretboard
  • metronome
Autoscroll
slow
fast
+/-
esc
set tempo
stop
I take no responsibility for this tab, just copied it from the guitar pro tab


Verse part (KK)

E----------------0-------------------0------------------0------------------|
B------------------3-------------------3------------------3----------------|
G--------4-----------4----------4--------4---------4--------4--------------|
D------4---4-----------4------4---4--------4-----4---4--------4------------|
A----2----------------------2------------------2---------------------------|
E--------------------------------------------------------------------------|

E-----------------------|
B-----------------------|
G-----------------------|
D-----------------------|
A--2--2-2---4-----------|
E--0--0-0---2-----------|
Check song for amou nt of times you repeat

Electric part/chorus
At the end of the verse, Glenn plays an open E5 chord and then, they both play this

E----------------------------------------------------------------------------|
B----------------------------------------------------------------------------|
G----------------------------------------------------------------------------|
D----------------------------------------------------------------------------|
A--7-9--9---7-9--9---7-9--9-----7-9-11--12----11-----------------------------|
E--5-7--7---5-7--7---5-7--7-----5-7-9---10----9------------------------------|


Again, check for repeats. End with an F#5 chord


 bridge

                                         x2
E---------------------------------------|
B---------------------------------------|
G---------------------------------------|
D---------------------------------------|
A-2-4-4-4-4-4-4-4--2-4-4-4-4-4-4-4------|
E-0-2-2-2-2-2-2-2--0-2-2-2-2-2-2-2------|
 PM|_____________|  |_____________|


E-----------------------------------------------|   x2
B-----------------------------------------------|
G-----------------------------------------------|
D--2-4-4-4-4-4-4-4--2-4-4-4-4-4-4-4-------------|
A--0-2-2-2-2-2-2-2--0-2-2-2-2-2-2-2-------------|
E-----------------------------------------------|

Same pattern for PMs,

Bridge 2
comments
print report bad tab
2 comments total.
0 reply
ajm8257 wrote on May 19 2008, 03:44 pm

Good Job But You Should also tab the solo if you know it.

0 reply
Toology83 wrote on July 14 2009, 01:15 pm

This tab is wrong in so many places

I want to post or [tab]
guest
You may want to rate the tab now too:
select rating
Please do not post tabs as comments. Select "correction" instead!