Oops, an error
Loading. Please wait.

Beyond The Realms Of Death Tab

version 3
32,886 views 9 this week
4 commentsread comments
1 2 3 4 5
x 21
add to favorites
×
Save as Personal and add changes to this tab that will be seen only by you. Learn more ›
×
You can save this tab as Personal to edit and correct it or add notes. All changes will be seen only by you. Learn more »
save as personal
new!
launch autoscroll
font size
0
reset
how to read this tab
guitar tuner
backing track
0:00
0:00
Autoscroll
slow
fast
+/-
esc
set tempo
stop
Author
Difficulty
intermediate
(Guitar 1)
(clean)

[Intro]
e|-------------0-----------------------0-----------------------0------------|
B|----------------3----------------------3-----------------------3----------|
G|-------4-----------4------------4--------4-----------4-----------4--------|
D|----4-----4-----------4------4-----4--------4-----4-----4----------4-2-2-4|
A|-2-----------------------0-------------------------------------------2-2-4|
E|-----------------------------------------------3---------------------0-0-2|

e|-------------0----------------------0------------------------0------------|
B|----------------3---------------------3------------------------3----------|
G|-------4-----------4-----------4---------4-----------4-----------4--------|
D|----4-----4-----------4-----4-----4---------4-----4-----4----------4-2-2-4|
A|-2-----------------------0-------------------------------------------2-2-4|
E|-----------------------------------------------3---------------------0-0-2|

[Verse]
e|-------------0-----------------------0-----------------------0------------|
B|----------------3----------------------3-----------------------3----------|
G|-------4-----------4------------4--------4-----------4-----------4--------|
D|----4-----4-----------4------4-----4--------4-----4-----4----------4-2-2-4|
A|-2-----------------------0-------------------------------------------2-2-4|
E|-----------------------------------------------3---------------------0-0-2|

e|-------------0----------------------0------------------------0------------|
B|----------------3---------------------3------------------------3----------|
G|-------4-----------4-----------4---------4-----------4-----------4--------|
D|----4-----4-----------4-----4-----4---------4-----4-----4----------4-2-2-4|
A|-2-----------------------0-------------------------------------------2-2-4|
E|-----------------------------------------------3---------------------0-0-2|

e|-------------0-----------------------0-----------------------0------------|
B|----------------3----------------------3-----------------------3----------|
G|-------4-----------4------------4--------4-----------4-----------4--------|
D|----4-----4-----------4------4-----4--------4-----4-----4----------4-2-2-4|
A|-2-----------------------0-------------------------------------------2-2-4|
E|-----------------------------------------------3---------------------0-0-2|

e|-------------0----------------------0------------------------0------------|
B|----------------3---------------------3------------------------3----------|
G|-------4-----------4-----------4---------4-----------4-----------4--------|
D|----4-----4-----------4-----4-----4---------4-----4-----4----------4-2-2-4|
A|-2-----------------------0-------------------------------------------2-2-4|
E|-----------------------------------------------3---------------------0-0-2|

(Guitar 2-optional)
(clean, pick the notes at the same time as guitar 1)

[Instrumental]
e|----2-----2--0--------------2----2-0-----------2-----2--0-----------------|
B|-0-----0--------3--------0----0------3-------0----0-------3---------------|
G|-------------------4--------------------4--------------------4------------|
D|----------------------4--------------------4--------------------4---2-2-4-|
A|--------------------------------------------------------------------2-2-4-|
E|--------------------------------------------------------------------0-0-2-|

e|----2-----2--0--------------2----2-0-----------2-----2--0-----------------|
B|-0-----0--------3--------0----0------3-------0----0-------3---------------|
G|-------------------4--------------------4--------------------4------------|
D|----------------------4--------------------4--------------------4---2-2-4-|
A|--------------------------------------------------------------------2-2-4-|
E|--------------------------------------------------------------------0-0-2-|

[Verse]
e|----2-----2--0--------------2----2-0-----------2-----2--0-----------------|
B|-0-----0--------3--------0----0------3-------0----0-------3---------------|
G|-------------------4--------------------4--------------------4------------|
D|----------------------4--------------------4--------------------4---2-2-4-|
A|--------------------------------------------------------------------2-2-4-|
E|--------------------------------------------------------------------0-0-2-|

e|----2-----2--0--------------2----2-0-----------2-----2--0-----------------|
B|-0-----0--------3--------0----0------3-------0----0-------3---------------|
G|-------------------4--------------------4--------------------4------------|
D|----------------------4--------------------4--------------------4---2-2-4-|
A|--------------------------------------------------------------------2-2-4-|
E|--------------------------------------------------------------------0-0-2-|

e|----2-----2--0--------------2----2-0-----------2-----2--0-----------------|
B|-0-----0--------3--------0----0------3-------0----0-------3---------------|
G|-------------------4--------------------4--------------------4------------|
D|----------------------4--------------------4--------------------4---2-2-4-|
A|--------------------------------------------------------------------2-2-4-|
E|--------------------------------------------------------------------0-0-2-|

e|----2-----2--0--------------2----2-0-----------2-----2--0-----------------|
B|-0-----0--------3--------0----0------3-------0----0-------3---------------|
G|-------------------4--------------------4--------------------4------------|
D|----------------------4--------------------4--------------------4---2-2-4-|
A|--------------------------------------------------------------------2-2-4-|
E|--------------------------------------------------------------------0-0-2-|

[Chorus]
(Use distortion)
e|--------------------------------------------|
B|--------------------------------------------|
G|--------------------------------------------|
D|-7/9--9---7/9--9---7/9--9---7/9-----12--11--|
A|-7/9--9---7/9--9---7/9--9---7/9-----12--11--|
E|-5/7--7---5/7--7---5/7--7---5/7--9--10--9---|

e|--------------------------------------------|
B|--------------------------------------------|
G|--------------------------------------------|
D|-7/9--9---7/9--9---7/9--9---7/9-----12--11--|
A|-7/9--9---7/9--9---7/9--9---7/9-----12--11--|
E|-5/7--7---5/7--7---5/7--7---5/7--9--10--9---|

e|--------------------------------------------|
B|--------------------------------------------|
G|--------------------------------------------|
D|-7/9--9---7/9--9---7/9--9---7/9-----12--11--|
A|-7/9--9---7/9--9---7/9--9---7/9-----12--11--|
E|-5/7--7---5/7--7---5/7--7---5/7--9--10--9---|

e|-----------------------------------------------|
B|-----------------------------------------------|
G|-----------------------------------------------|
D|-7/9--9---7/9--9---7/9--9---7/9-----12--11--4--|
A|-7/9--9---7/9--9---7/9--9---7/9-----12--11--4--|
E|-5/7--7---5/7--7---5/7--7---5/7--9--10--9---2--|

[Bridge]
e|--------------------------------------------------------------------------|
B|--------------------------------------------------------------------------|
G|--------------------------------------------------------------------------|
D|-2h4-4-4-4-4-4-4-2h4-4-4-4-4-4-4-4-2h4-4-4-4-4-4-4-4-2h4-4-4-4-4-4-4-4--4-|
A|-2h4-4-4-4-4-4-4-2h4-4-4-4-4-4-4-4-2h4-4-4-4-4-4-4-4-2h4-4-4-4-4-4-4-4--4-|
E|-0h2-2-2-2-2-2-2-0h2-2-2-2-2-2-2-2-0h2-2-2-2-2-2-2-2-0h2-2-2-2-2-2-2-2--2-|

e|-------------------------------------------------------------------------|
B|-------------------------------------------------------------------------|
G|-------------------------------------------------------------------------|
D|-0h2-2-2-2-2-2-2---0h2-2-2-2-2-2-2---0h2-2-2-2-2-2-2---0h2-2-2-2-2-2-2---|
A|-0h2-2-2-2-2-2-2---0h2-2-2-2-2-2-2---0h2-2-2-2-2-2-2---0h2-2-2-2-2-2-2---|
E|-0-0-0-0-0-0-0-0---0-0-0-0-0-0-0-0---0-0-0-0-0-0-0-0---0-0-0-0-0-0-0-0---|

(This part comes in after the bridge right before the solo)
(let the first three chords ring for about 4 quarter notes and play the last two chords 
same way as in the verses)

[End of bridge]
e|-----------------|
B|-----------------|
G|-----------------|
D|-9--7--5--2--4---|
A|-9--7--5--2--4---|
E|-7--5--3--0--2---|


************************************

| /  Slide up
| h  Hammer-on

************************************
Suggest correction
comments
print report bad tab
4 comments total. Showing first comments.
+3 reply
southernalex 10 Aug 06, 2008 06:57 PM

good, dissappointing that you didnt tab out the solo, but that ok, the rest is perfect so you made up for it haha

+4 reply
Jziggy211 10 Oct 07, 2009 08:03 AM

good but IMO this is not an intermediate tab. Definately novice

0 reply
NYTrainman 10 Nov 16, 2013 02:48 PM

Lyrics:
He had enough
He couldn't take anymore
He'd found a place
In his mind and slammed the door
No matter how they tried
They couldn't understand
They washed and dressed him
And fed him by hand

Yeah! I've left the world behind
I am safe here in my mind
Free to speak with my own kind
This is my life, this is my life
And I'll decide not you

Withdrawn he'd sit there
Staring into space
No sign of life
Would flicker on his face
Until one day he smiled
It seemed as though with pride
The wind kissed him
Goodbye - and then he died

Yeah! I've left the world behind
I am safe here in my mind
Free to speak with my own kind
This is my life, this is my life
And I'll decide not you

Keep the world with all its sin
It's not fit for livin' in
Yeah! I will start again
It can take forever, and ever, and ever
And ever, but I'll still win.

How many like him,
Are there still
Who, to us all
Seem to have lost the will
They lie in thousands
Blank and lost
Is nothing worth this bitter cost

Yeah! I've left the world behind
I am safe here in my mind
Free to speak with my own kind
This is my life, this is my life
And I'll decide not you
keep the world with all its sin
It's not fit for livin' in

Beyond the realms of death.

guest
You may want to rate the tab now too:
select rating
Wanna post a correction for this tab? Suggest correction