Oops, an error
Loading. Please wait.

Beyond The Realms Of Death Tab

version 6
3,616 views 6 this week
no commentswrite comment
1 2 3 4 5
accurate
x 4
add to favorites
launch autoscroll
font size
0
reset
how to read this tab
guitar tuner
Autoscroll
slow
fast
+/-
esc
set tempo
stop
Help us to improve Ultimate-Guitar.com Take our survey!
×
                                      Judas Priest
                                Beyond The Realms Of Death
                 
Tab By Pedro Mira
Tuning: Standard (E)



This is my first tab, so i hope you enjoy it....


The song comes like this

Clean Guitar 
Intro X 2 times
Verse X 4 times

E------2---2--0-------------2---2--0--------------2----2--0--------------|
B---------------3--------------------3----------------------3------------|
G--------4--------4-----------4--------4-------------4--------4----------|
D-------------------4--------------------4----------------------4--------|
A----2--------------------0----------------------------------------------|
E-----------------------------------------------3------------------------|
                          
E-----------------------|  
B-----------------------|
G-----------------------|
D-----------------------| 
A--2--2-2---4-----------|
E--0--0-0---2-----------|


After intro(second time) comes this riff:
E----------------------------------------------|
B----------------------------------------------|
G----------------------------------------------|
D----------------------------------------------|
A-14----17-16-14----17-16-14-----14\2/21~~~~---|
E----------------------------------------------|




Chorus X 4
Guitar with Distortion:

|--------------------------------------------|
|--------------------------------------------|
|-0h4--4---0h4--4--0h4--4---0h4--6-7--6------|
|-0h4--4---0h4--4--0h4--4---0h4--6-7--6------|
|-0h2--2---0h2--2--0h2--2---0h2--4-5--4------|
|--------------------------------------------|


Bridge X 2
Guitar distortion:

Pm = .....

|--------------------------------------------------------------------------|
|-------------------------------------------------------------------------|
|-------------------------------------------------------------------------|
|-0h4-4-4-4-4-4-4-0h4-4-4-4-4-4-4-4-0h4-4-4-4-4-4-4-4-0h4-4-4-4-4-4-4-4---|
|-0h4-4-4-4-4-4-4-0h4-4-4-4-4-4-4-4-0h4-4-4-4-4-4-4-4-0h4-4-4-4-4-4-4-4---|
|-0h2-2-2-2-2-2-2-0h2-2-2-2-2-2-2-2-0h2-2-2-2-2-2-2-2-0h2-2-2-2-2-2-2-2---|
    . ...........   . .............   . .............   . .............  

|--------------------------------------------------------------------------|
|--------------------------------------------------------------------------|
|--------------------------------------------------------------------------|
|-0h2-2-2-2-2-2-2---0h2-2-2-2-2-2-2---0h2-2-2-2-2-2-2---0h2-2-2-2-2-2-2--2-|
|-0h2-2-2-2-2-2-2---0h2-2-2-2-2-2-2---0h2-2-2-2-2-2-2---0h2-2-2-2-2-2-2--2-|
|-0-0-0-0-0-0-0-0---0-0-0-0-0-0-0-0---0-0-0-0-0-0-0-0---0-0-0-0-0-0-0-0--0-|
    . ...........     . ...........     . ...........     . ...........  


Verse X 2

Riff Before solo.... or pre-solo, as you want.

|-----------------|
|-----------------|
|-4--2------------|
|-4--2--5--2--4---|
|-2--0--5--2--4---|
|-------3--0--2---|


First Solo!!

E--------------------------------------------------------------17----------|
B----------------------------------------------17b(19)--17b(19)~~~~b17(19)-|
G--16p14------------------------------------14-----------------------------|
D------------------------------------14---16-------------------------------|
A----------17-16-------------14-17-16---17---------------------------------|
E----------------17-13-14-17-----------------------------------------------|

E---------------------------14-12--------|
B----15-17--------15---------------------|
G- --------16b(17)-----------------------|
D----------------------------------------|
A----------------------------------------|
E----------------------------------------|

E--------17--------------------------------------------------------|
B--15-14----14-15---14---------------------------------------------|
G----------------16----16-14-16-14---------14----------------------|
D------------------------------------14-16----16-15-14---14--------|
A------------------------------------------------------17----------|
E------------------------------------------------------------------|

E-----------------------------------------------------------------|
B-----------------------------------------------------------------|
G-----------14H.---------------------------------9-12-11----------|
D--16---------------------9----9-11-12--------------------9-11-12-|
A-------17-------16-17-------------------9-10-12-------------------|
E-----------------------------------------------------------------|


E------------10-----10-----14-----14--------------------------------|
B------10-12----12-----12-----12-----12-14-15----12-14-15-14--------|
G-9-11--------------------------------------------------------------|
D-------------------------------------------------------------------|
A-------------------------------------------------------------------|
E-------------------------------------------------------------------|

E-----------------14-----------------------------------------------|
B--14-15-12-14-12----12--11-----10b(12)----12-10-------------------|
G------------------------------------------------11-9-10-9---------|
D----------------------------------------------------------12------|
A------------------------------------------------------------------|
E------------------------------------------------------------------|

E--------------------------------------------------------------------------|
B----------------12-10-----------------------------------------------------|
G-9-----------11-------11-7-9b(11)-9-7--9b(11)----9b(11)--9-11-9-7-9-7--9--|
D----12\---------------------------------------------------------------7---|
A--------------------------------------------------------------------------|
E--------------------------------------------------------------------------|


E---------------------------------------------------------------------|
B---------------------------------------------------------------------|
G--9-11-11-11-11-9-9-9-9-7-7-7-7-6-6-7--------------------------------|
D---------------------------------------9-----9-11-12-9---14-12-11-9--|
A---------------------------------------------------------------------|
E---------------------------------------------------------------------|


E----------------------------------------------------------------|
B------------------------------------------------10--------------|
G-------6-----6-7-6-7---9---9b(11)-9b(11)--9-7-6----9b(11)-9-7---|
D--12-9---9-------------------------------------------------------|
A----------------------------------------------------------------|
E----------------------------------------------------------------|

E-----------------7------------------7--------7---------------------|
B-10b(12)-10b(12)~-10-7-10-10b(12)-----10-7--7-10-7--7--------------|
G-------------------------------------------9-------9--9-7-9-7--7---|
D--------------------------------------------------------------9----|
A-------------------------------------------------------------------|
E-------------------------------------------------------------------|


E------------------------------------------------------------------------|
B--------------------------------------------------7-7-7-7-10-10-10-10---|
G----------------------------------------7---7-9-9-----------------------|
D-9-7-9-7------------------------7---7s9---9-----------------------------|
A---------9--7--7h8--7s5-5s7-7s9---9-------------------------------------|
E------------------------------------------------------------------------|


E--------------------------------------12---------------------|
B-12-12-15---12----15-12------12-14-15------------------------|
G-------------------------------------------------------------|
D-------------------------------------------------------------|
A-------------------------------------------------------------|
E-------------------------------------------------------------|


E----------14------14-15---14-15----14-15---14-15-17--17b(19)--17(19)~~--|
B-14-15-17---15-17------17-------17-------17-----------------------------|
G------------------------------------------------------------------------|
D------------------------------------------------------------------------|
A------------------------------------------------------------------------|
E------------------------------------------------------------------------|


E-17-15-14-15-17-15-14-----14--17p14-15p14----14h15p14---------------|
B----------------------17------------------17----------17b(19)-------|
G--------------------------------------------------------------------|
D--------------------------------------------------------------------|
A--------------------------------------------------------------------|
E--------------------------------------------------------------------|


E------------22-----------22----------------17----------------|
B-22-22b(24)----22-22b(24)--22b(24)rb22--19---19-17-19-17-----|
G-------------------------------------------------------------|
D-------------------------------------------------------------|
A-------------------------------------------------------------|
E-------------------------------------------------------------|

E------14-17p14--------14-17p14--------14p17-14p19-14p17-14p19-14p17-14p19-|
B-17b(19)---------17b(19)---------17b(19)----------------------------------|
G--------------------------------------------------------------------------|
D--------------------------------------------------------------------------|
A--------------------------------------------------------------------------|
E--------------------------------------------------------------------------|


E-17b(19)-19-21-22-22b(24)-22-21-19-17----------------------------|
B-----------------------------------------------------------------|
G---------------------------------------19-18-----------19~~~~~~~-|
D-----------------------------------------------------------------|
A-----------------------------------------------------------------|
E-----------------------------------------------------------------|


E----------------------------|
B----------------------------|
G--19~~~~~-----------19s0----|
D----------------------------|
A----------------------------|
E----------------------------|


verse X 4

Chorus X 4

Bridge X 1

Solo 2 (I dont know to play it....jeje)



Song ending.
|--------------------------------------------|
|--------------------------------------------|
|-0h4--4---0h4--4--0h4--4---0h4--6-7--6------|
|-0h4--4---0h4--4--0h4--4---0h4--6-7--6---4--|
|-0h2--2---0h2--2--0h2--2---0h2--4-5--4---4--|
|-----------------------------------------2--|



Viva COLOMBIA!!! ....ILU LM
Suggest correction new What's this?
You can suggest a correction to this tab. Community and Mods will review your correction and vote to approve or reject it.
comments
print report bad tab
guest
You may want to rate the tab now too:
select rating
Please do not post tabs as comments. Select "correction" instead!