Oops, an error
Loading. Please wait.

Bloodstone bass

version 1
version 1

Whole song

Interactive

370 views 6 this week
no commentswrite comment
1 2 3 4 5
3 more votes to show rating
add to favorites
×
Save as Personal and add changes to this tab that will be seen only by you. Learn more ›
×
You can save this tab as Personal to edit and correct it or add notes. All changes will be seen only by you. Learn more »
launch autoscroll
font size
0
reset
guitar tuner
backing track
0:00
0:00
edit
Autoscroll
slow
fast
+/-
esc
set tempo
stop
Author
Difficulty
-------------------------------------------------------------------------------
                             BLOODSTONE - Judas Priest
-------------------------------------------------------------------------------
Tabbed by: DarrellF

Tuning: Standard

Bass Tab


Intro:
======
Listen to song for timing. Bass and drums kick in after guitar lead-in and
halfway through an abbreviated single-guitar chorus riff.

G|-----|
D|-----|
A|-----|
E|-001-|

G|---------------------|---------------------|---------------------|-----------|
D|---------------------|---------------------|---------------------|-----------|
A|---------------------|---------------------|---------------------|-----------|
E|-2-22-2-22-2-22-2-22-|-2-22-2-22-2-22-2-22-|-2-22-2-22-2-22-2--0-|--0------2-|
                                                                 |____|      |__
                                                                  Hold

Verse 1:
========
(1x)                            (7x)
G|---------------------|        G|---------------------||
D|---------------------|        D|---------------------||
A|---------------------|        A|---------------------||
E|-2-22-2-22-2-22-2-22-|        E|-2-22-2-22-2-22-2-22-||
___|



Bridge:
=======
    How much longer will it take for the world to see? .....
G|-----------------|-----------------|---------------------|---------------------|
D|-----------------|-----------------|---------------------|---------------------|
A|-----------------|-----------------|---------------------|---------------------|
E|-0-0-0-0-0-0-0-0-|-0-0-0-0-0-0-0-2-|-2-22-2-22-2-22-2-22-|-2-22-2-22-2-22-2--0-|
                                   |___|                                       |__

    We should learn to live and simply let it be.........
G|-----------------|-----------------|---------------------|-----------------|
D|-----------------|-----------------|---------------------|-----------------|
A|-----------------|---------------4-|-4-44-4-44-4-44-4-44-|-4---2-0-2-0-----|
E|-0-0-0-0-0-0-0-0-|-0-0-0-0-0-0-0---|---------------------|-------------2-0-|
___|                               |___|



Chorus:
=======
(3x)                            (1x)
G|---------------------||       G|---------------------|
D|---------------------||       D|---------------------|
A|---------------------||       A|---------------------|
E|-2-22-2-22-2-22-2-22-||       E|-2-22-2-22-2-00-2-00-|

(First chorus ending only)
G|---------------------|---------------------|-------|
D|---------------------|---------------------|-------|
A|---------------------|---------------------|-------|
E|-2-22-2-22-2-22-2-22-|-2-22-2-22-2-22-2--0-|--0--2-|
                                           |____|  |__
(Remaining chorus ending)
G|---------------------|---------------------|-----------------|
D|---------------------|---------------------|-----------------|
A|---------------------|-------------------4-|-4---2-0-2-0-----|
E|-2-22-2-22-2-22-2-22-|-2-22-2-22-2-22-2----|-------------2-0-|
                                           |___|


Verse 2:
========
(1x)                            (6x)
G|---------------------|        G|---------------------||
D|---------------------|        D|---------------------||
A|---------------------|        A|---------------------||
E|-2-22-2-22-2-22-2-22-|        E|-2-22-2-22-2-22-2-22-||
___|

G|----------------|
D|----------------|
A|-0-------0-2-0--|
E|-------2--------|



(Repeat Bridge)

(Repeat Chorus)



Lead Guitar 1:
==============
(7x)                            (1x)
G|------------------||          G|-----------------|
D|------------------||          D|-----------------|
A|------------------||          A|-----------------|
E|-5-5-5-5-5-5-5-x5-||          E|-r---r---r---(0)-|
                                    (*Drum Break)


Lead Guitar 2:
==============
(7x)                            (1x)
G|---------------------||       G|---------------------|
D|---------------------||       D|---------------------|
A|---------------------||       A|------------------22-|
E|-0-00-0-00-0-00-0-00-||       E|-0-00-0-00-0-00-0----|

G|---------------------|---------------------|---------------------|---------------------|
D|---------------------|---------------------|---------------------|---------------------|
A|-2-22-2-22-2-22-2-22-|-2-------------------|-2-22-2-22-2-22-2-22-|-2-------------------|
E|---------------------|---00-0-22-2-22-2-22-|---------------------|---00-0-22-2222-2-22-|

G|---------------------|---------------------|--------------------|-----------------|
D|---------------------|---------------------|--------------------|-----------------|
A|---------------------|------------------44-|-4-44-4-22-2-22-2-4-|-4---2-0-2-0-----|
E|-4-44-4-44-4-44-4-44-|-4-44-4-44-4-44-4----|--------------------|-------------2-0-|
                                                                |___|


(Repeat Chorus 3x)

G|-----|
D|-----|
A|-----|
E|--2--|




Legend:
=======
h  hammer-on
x  Mute note
r  rest
===============================================================================

LYRICS:

I've been trying
There's no denying.
It's sending me
Out of my mind.
I've seen reason
Change to treason.
It's losing its sense
Of all kind.

How much longer will it take
For the world to see?
We should learn to live
And simply let it be.

Bloodstone, bloodstone.
Bloodstone, bloodstone.

In the night time
Wake in fright.
I'm so scared of the game
That's being played.
Start to wonder
What's going under
And how many deals
Have been made

How much longer will it take
For the world to see?
We should learn to live
And simply let it be.

Bloodstone, bloodstone.
Bloodstone, bloodstone.

Bloodstone.
I can't take it.
Bloodstone.
You got me living on a
Bloodstone
I don't want that
Bloodstone.

            
            
Suggest correction
Creating personal tab
Creating personal tab
You can edit any tab online and save it as your Personal.

You can edit, replace or remove any tab part or add personal notes – all changes will be seen only by you.

Personal tabs can be accessed anytime from any device, even offline.
Learn more »
Give kudos to tab author, rate the tab!
1 2 3 4 5
comments
print report bad tab
guest
You may want to rate the tab now too:
select rating
Wanna post a correction for this tab? Suggest correction