Oops, an error
Loading. Please wait.

Breaking The Law Bass Tab

version 3
version 3
52,750 views 153 this week
6 commentsread comments
1 2 3 4 5
x 31
add to favorites
launch autoscroll
font size
0
reset
guitar tuner
Autoscroll
slow
fast
+/-
esc
set tempo
stop
Help us to improve Ultimate-Guitar.com Take our survey!
×
Author
Tabbed by: BASSteve

Tuning: EADG
Time signature: 8/8


*My tabs are meant to be read in conjunction with listening to the song.
In other words, there are no specific notations to account for note/rest duration. 
However, you will find that I've made an attempt to strategically space the notes 
and rests within their respective measures in order to represent the appropriate 
durations.


[Intro]

G|--------------------------------|--------------------------------|
D|--------------------------------|--------------------------------|
A|0-0-0-0-0-0-0-0-0-0-0-0-0-0-0-0-|--------------------------------|
E|--------------------------------|1-1-1-1-1-1-1-1-3-3-3-3-3-3-3-3-|


G|--------------------------------|---------------------------------|
D|--------------------------------|---------------------------------|
A|0-0-0-0-0-0-0-0-0-0-0-0-0-0-0-0-|--------------------0------3---2-|
E|--------------------------------|1-1-1-1-1-1-1-1-3-------3--------|


[Verse 1]

   2x
G||--------------------------------|--------------------------------||
D||--------------------------------|--------------------------------||
A||0-0-0-0-0-0-0-0-0-0-0-0-0-0-0-0-|3-3-3-3---------0-0-0-0-0-0-0-0-||
E||--------------------------------|--------3-3-3-3-----------------||


[Pre-Chorus]

G|--------------------------------|--------------------------------|
D|--------------------------------|--------------------------------|
A|--------------------------------|3-3-3-3-3-3-3-3-3-3-3-3-3-3-3-3-|
E|1-1-1-1-1-1-1-1-1-1-1-1-1-1-1-1-|--------------------------------|



G|--------------------------------|--------------------------------|
D|--------------------------------|--------------------------------|
A|--------------------------------|--------------------------------|
E|1-1-1-1-1-1-1-1-1-1-1-1-1-1-1-1-|0-0-0-0-0-0-0-0-0-r-------------|


[Chorus 1]

   2x
G||--------------------------------|--------------------------------||
D||------------------------------7\|--------------------------7---7\||
A||0-0-0-0-0-0-0-0-0-0-0-0-0-0-0---|--0-0-0-0-0-0-0-0-0-0-0-0-------||
E||--------------------------------|--------------------------------||


[Verse 2]
 
G|--------------------------------|--------------------------------|
D|--------------------------------|--------------------------------|
A|0-0-0-0-0-0-0-0-0-0-0-0-0-0-0-0-|3-3-3-3---------0-0-0-0-0-0-0-0-|
E|--------------------------------|--------3-3-3-3-----------------|


G|--------------------------------|--------------------------------|
D|--------------------------------|--------------------------------|
A|0-0-0-0-0-0-0-0-0-0-0-0-0-0-0-0-|3-3-3-3-5-5-5-5-7-7-7-7-7-7-7-7-|
E|--------------------------------|----------------0-0-0-0-0-0-0-0-|


[Pre-Chorus]

  
G|--------------------------------|--------------------------------|
D|------------------------------7\|--------------------------7---7\|
A|0-0-0-0-0-0-0-0-0-0-0-0-0-0-0---|--0-0-0-0-0-0-0-0-0-0-0-0-------|
E|--------------------------------|--------------------------------|


G|--------------------------------|--------------------------------|
D|------------------------------7\|--------------------------------|
A|0-0-0-0-0-0-0-0-0-0-0-0-0-0-0---|--0-0-0-0-0-0-0-0-0-0-0-0-------|
E|--------------------------------|--------------------------5/--7-|


[Interlude]

   2x
G||--------------------------------|--------------------------------||
D||--------------------------------|--------------------------------||
A||--------------------------------|--------------------------------||
E||7-7-7-7-7-7-7-7-7-7-7-7-7-7-7-7-|7-7-7-7-7-7-7-7-7-7-7-7-7-7-7-7-||


   2x
G||--------------------------------|--------------------------------||
D||--------------------------------|--------------------------------||
A||5-5-5-5-5-5-5-5-5-5-5-5-5-5-5-5-|5-5-5-5-5-5-5-5-5-5-5-5-5-5-5-5-||
E||--------------------------------|--------------------------------||


G|--------------------------------|--------------------------------|
D|--------------------------------|--------------------------------|
A|0-r-----------------------------|--------------------------------|
E|------------------------------1-|r-----------3-r-----------------|


G|--------------------------------|--------------------------------|
D|--------------------------------|--------------------------------|
A|0-r-----0-r-----0-r-----0-r-----|--------------------------------|
E|--------------------------------|1-r-1-r-1-r-1-r-3-3-3-3-3-3-3-3-|


[Outro]

   2x
G||--------------------------------|--------------------------------||
D||--------------------------------|--------------------------------||
A||0-0-0-0-0-0-0-0-0-0-0-0-0-0-0-0-|--------------------------------||
E||--------------------------------|1-1-1-1-1-1-1-1-3-3-3-3-3-3-3-3-||


   2x
G||--------------------------------|--------------------------------||
D||--------------------------------|--------------------------------||
A||0-0-0-0-0-0-0-0-0-0-0-0-0-0-0-0-|--------------------------------||
E||--------------------------------|1-1-1-1-1-1-1-1-1-3-3-3-3-3-3-3-||


   2x
G||--------------------------------|--------------------------------||
D||--------------------------------|--------------------------------||
A||0-0-0-0-0-0-0-0-0-0-0-0-0-0-0-0-|--------------------------------||
E||--------------------------------|1---1-1-1-1-1-1-1-3---3-3-3-3---||


G|--------------------------------|--------------------------------|
D|--------------------------------|--------------------------------|
A|0-r-----------------------------|--------------------------------|
E|--------------------------------|--------------------------------|


************************************

|  r  Rest
|  /  Slide up
|  \  Slide down
| ||  Measure gets repeated 

************************************
Suggest correction
comments
print report bad tab
6 comments total. Showing first comments.
+1 reply
Jonesy914 10 Apr 16, 2010 11:50 AM

Great tab, the layout is simple and easy to understand, thanks!

+1 reply
Loxias 41 Apr 27, 2010 01:20 AM

Awesome tab

+1 reply
bassjoe72 10 Sep 11, 2011 08:04 PM

Looks great bro. Nice and clean, thanx man

guest
You may want to rate the tab now too:
select rating
Wanna post a correction for this tab? Suggest correction