Oops, an error
Loading. Please wait.

Burn In Hell Tab

version 2
version 2

Whole song

Interactive

1,837 views 1 this week
no commentswrite comment
1 2 3 4 5
please rate
add to favorites
launch autoscroll
font size
0
reset
how to read this tab
guitar tuner
Tab Pro tools
  • play this tab
  • loop segment
  • change instrument
  • show fretboard
  • metronome
×
Best way to learn
"Burn In Hell"
Autoscroll
slow
fast
+/-
esc
set tempo
stop
Contributor
Burn in Hell - Judas Priest
By HäxMäx


B - bend
\ - slide down
/ - slide up
. - palm mute
~ - vibrato
* - some effect that makes note an octave higher
+note+ - natural harmonics
h - hammer on
p - pull off

Tune down half step

   Intro
e|-------------------------------------------------------|
B|-------------------------------------------------------|
G|-------------------------------------------------------|
D|--------8-7------7-6------8-7------7-6--6--------------|
A|-6----6--------6--------6--------6--------9-8\9-6------|
E|-------------------------------------------------------|

   Riff 1					 on the 17th time
e|-----------------|------------------|	|--------------------|
B|-----------------|------------------|	|--------------------|
G|-----------------|------------------|	|--------------------|
D|---8-7------6----|---8-7------6-----|	|---8-7------6-------|
A|-6-----8\9----7--|-6-----8\9----8-7-|	|-6-----8\9----7--6--|
E|-----------------|------------------|	|--------------------|

   Riff 2
e|------------------------------|
B|------------------------------|
G|------------------------------|
D|-1--1-2-1-2-3-4-1-111-2-1-2-4-|
A|-1--1-2-1-2-3-4-1-111-2-1-2-4-|
E|------------------------------|
        . . . . .   ... . . .

   Riff 3
e|-----------------------------------------------------|
B|-----------------------------------------------------|
G|-----------------------------------------------------|
D|-1--1--2-1--1--1-1-1-2-1---1--1--2-1--1--1-1-1-2-1---|
A|-1--1--0-1--1--1-1-1-0-1-4-1--1--0-1--1--1-1-1-0-1-4-|
E|-------------------------2-------------------------2-|
                                           . . .

   Lead 1
e|-\14~~~~11~~~~-------------|
B|---------------------------|
G|---------------------------|
D|-------------------------1-|
A|---------------9~~~~-6~~-1-|
E|---------------------------|

   Riff 4
e|-----------------------------|
B|-----------------------------|
G|-----------------------------|
D|-1-1-1-1-2-1-1-1-1-1-1-2-1---|
A|-1-------0-----1-------0-1-4-|
E|---------------------------2-|
     . . .   . .   . . . 

   Riff 5
e|------------------------------------------------------------------------------------|
B|------------------------------------------------------------------------------------|
G|------------------------------------------------------------------------------------|
D|-2-1-1-1-1-1-1-1-1-1-1-2---2-1-1-1-1-1-1-1-1-1-1-2-2-2-1-1-1-1-1-1-1-1-1-1-2----1-1-|
A|-0-------1-------1-----2-4-0-------1-------1-----2-2-0-------1-------1-----2-4--1-1-|
E|-------------------------2---------------------------------------------------2------|
     . . .   . . .   . .       . . .   . . .   . .       . . .   . . .   . .      . .

   Break
e|--------------------------------------------------------------------|
B|--------------------------------------------------------------------|
G|------------------------------------------------+6+-----------------|
D|-------------7--------1-2-1-2-------1----------7--+6+---1-2-1-2-----|
A|-6--7--9-7-6----9-7-6-1-2-1-2-0-----1-7--9-7-6-------6--1-2-1-2-0---|
E|--------------------------------2-0-------------------------------2-|
                        . . . .                           . . . .

   Riff 6
e|---------------------------------|
B|---------------------------------|
G|---------------------------------|
D|-4/4-1-4/3-1-4/3-4/3-1-1-1-1-1-1-|
A|-4/4-1-4/3-1-4/3-4/3-1-1-1-1-1-1-|
E|---------------------------------|
       .     .         . . . . . . 

   Riff 7
e|--------------------------------------------------------------------------------------|
B|--------------------------------------------------------------------------------------|
G|---2b3-----2b3---1-0---2b3-----2b3---------2b3-----2b3---1-0---2b3-----2b3------------|
D|-1-----1-1-----------1-----1-1-----1-2-1-1-----1-1-----1-----1-----1-1-----2-1h2p1h2p1|
A|--------------------------------------------------------------------------------------|
E|--------------------------------------------------------------------------------------|
   .     . .     .     .     . .     .     .     . .     .     .     . .

  Riff 5
e|-----------------------------------------------------|
B|-----------------------------------------------------|
G|-----------------------------------------------------|
D|-2-1-1-1-1-1-1-1-1-1-1-2---2-1-1-1-1-1-1-1-1-1-1-2-2-|
A|-0-1-1-1-1-------1-----2-4-0-------1-------1-----2-2-|
E|-------------------------2---------------------------|
      . . .   . . .   . .       . . .   . . .   . .

   Outro
e|-------------------------------------|
B|-------------------------------------|
G|-------------+6+---------------------|
D|-1----------7--+6+---1-2-1-2-------1-|
A|-1-7--9-7-6--------6-1-2-1-2-0-----1-|
E|-------------------------------2-0---|
                       . . . .

	SONG STRUCTURE
Intro
Riff 1 (x17)
Riff 2 (x2)
Riff 3
Riff 3 + Lead 1
Riff 4 (x4)
Riff 3
Riff 4 (x4)
Riff 3
Riff 5
Riff 2 (x4)
Break
Riff 4 (x2) + Lead 1
Riff 4 (x2) + Solo
Riff 6 (x4)
Riff 5
Riff 2 (x4)
Riff 1 (x2)
Riff 7 (x4)
Riff 5 (x3)
Outro

Have much fun with this amazing song!!!
comments
We did not receive enough feedback on this tab! Please rate:
print report bad tab
1 2 3 4 5
I want to post or [tab]
guest
You may want to rate the tab now too:
select rating
Please do not post tabs as comments. Select "correction" instead!