Oops, an error
Loading. Please wait.

Burning Up Tab

version 1
version 1

Whole song

Interactive

3,529 views 12 this week
no commentswrite comment
1 2 3 4 5
please rate
add to favorites
launch autoscroll
font size
0
reset
how to read this tab
guitar tuner
Tab Pro tools
  • play this tab
  • loop segment
  • change instrument
  • show fretboard
  • metronome
×
Best way to learn
"Burning Up"
Autoscroll
slow
fast
+/-
esc
set tempo
stop
Contributor
Band:  Judas Priest
Album: Killing Machine
Song:  Burnin' Up

Copyright (c)  (CBS) (1978)
Version 1.0 - (16/02/05)



.  - palm mute           /  - slide up to
\  - slide down to       ~  - vibrato
h  - hammer on           b  - Bend
p  - pull off            Suffixes for bend
t  - tap                 f  - full bend    h - half bend
ph - pinched harmonic    q  - quarter bend t - tap bend
*  - see comment         ^  - Hold bend    r release bend
x  - Stuccatto           ~  - vibrato bend
,  - slight palm mute    () - ghost note, sustained note
"  - tremolo note        <> - Trill

Tunning E A D G B E

 Intro / main riff

               [PM]                   [-PM-]
E------------------12-12\--------------------3--|
B------------------12-12\--------------------3--|
G--------------------------------------------0--|
D-------------x------------------------------0--|
A---7-7-5---5-x--------------7-7-5---5----------|
E-0-------7----7-0---------0-------7---7-6-5----|

               [PM]                    [PM]
E------------------12-12\-----------------------|
B------------------12-12\-----------------------|
G-----------------------------------------------|
D-------------x----------------------------7----|
A---7-7-5---5-x--------------7-7-5---5-5---5----|
E-0-------7----7-0---------0-------7-----5------|
               

 Verse
                                                 [-----PM----]
E-------------------------------------------------------------------|
B-------------------------------------------------------------------|
G-------------------------------------------------------------------|
D-9----(9)--9\7-/9----(9)--7--5----(5)--5\4--(4)--------------------|
A-7----(7)--7\5-/7----(7)--5--3----(3)--3\2--(2)----5-5---4-4-------|
E-0----(0)-------0----(0)-------------------------0-3-3-0-2-2-------|

                                                 [-----PM----]
E-------------------------------------------------------------------|
B-------------------------------------------------------------------|
G-------------------------------------------------------------------|
D-9----(9)--9\7-/9----(9)--7--5----(5)--5\4--(4)--------------------|
A-7----(7)--7\5-/7----(7)--5--3----(3)--3\2--(2)----5-5---7-7-------|
E-0----(0)-------0----(0)-------------------------0-3-3-0-5-5-------|


 Bridge

E--------------------------------------|
B--------------------------------------|
G-6/8-x-8-x-8---/11--6/8---8---8---\4--|
D-7/9-x-9-x-9---/12--7/9---9---9---\5--|
A-7/9-x-9-x-9-9-/12--7/9---9---9-9-\5--|
E-5/7-x-7-x-7-7-/9---5/7-x-7-x-7-7-\3--|

E[-------------------------------------------------------------------|
B[-------------------------------------------------------------------|
G[-4/6-x-6-x-6-----------------------------------------4----(4)------|
D[-5/7-x-7-x-7----2----------------(2)-----------------4----(4)------|
A[-5/7-x-7-x-7-7--2----------------(2)-----------------2----(2)------|
E[-3/5-x-5-x-5-5--0----------------(0)-------------------------------|
 [
 [Lead guitar line with Wah at end of bridge
 [                                                     ~~~~~~~~~~~
E[-------------------------------------------------------------------|
B[-------------------------------------------------------------------|
G[----------------9p-7-----------------------------------------------|
D[---------------------9p-7-9p-7\-5---7p-5------5--------------------|
A[----------------------------------7------7p-5---7p-5---------------|
E[-----------------------------------------------------7----(7)------|

 Rpt main riff, substituting last part for this.
               [PM]                   
E------------------12-12\-----------------------|
B------------------12-12\-----------------------|
G-----------------------------------------------|
D-------------x------------------------7--------|
A---7-7-5---5-x--------------7-7-5---x-5-x-7----|
E-0-------7----7-0---------0-------7-x---x-5----|
               

 Clean guitar
E--------------------------------------------------------------|
B-----------------1------(1)------3-------(3)------------------|
G-9------(9)------0------(0)------2-------(2)------2--4--2-----|
D-9------(9)------2------(2)------0-------(0)------0--0--0-----|
A-7------(7)------3------(3)-----------------------------------|
E-0---------------------------------------------------------3p-|
 Rpt 6 X

 Interlude guitar solo 1st part
     h ~~~~~~~~~~~~~~~~~~~~~~~~~~~~~~~~~~~~To feed back. Pick scrape
E-10-12-----------------------(12)--------\----------------\-\------|
B-----------------------------------------------------------\-\-----|
G------------------------------------------------------------\-\----|
D-------------------------------------------------------------------|
A-------------------------------------------------------------------|
E-------------------------------------------------------------------|
     h          ph   ~~~~~~~~~~~~~~~~~     To Feed back
E-------------------------------------------------------------------|
B-12-15p12--15b-15b17------------(17)----17rb\----------------------|
G-------------------------------------------------------------------|
D-------------------------------------------------------------------|
A-------------------------------------------------------------------|
E-------------------------------------------------------------------|

 Interlude guitar solo 2nd part  

     h   ~~~~~~~~~~~~~~~~~~~~~~    ~~~~~~~~~~~~~~   ~~~~~~~~~~~~~~~~
E-12-15p12-------(12)-----------------------------12--------(12)----|
B-------------------------------------------------------------------|
G-------------------------------------------------------------------|
D----------------------------------7-----(7)------------------------|
A-------------------------------------------------------------------|
E-------------------------------------------------------------------|
              ~~~~~~~~~~~~~~~~~~~~~~~~~~~~~~~~~~~~~~~~~~~~~~~
E------------19-----------------------------------------------------|
B-------------------------------------------------------------------|
G-12-11-------------------------------------------------------------|
D-------------------------------------------------------------------|
A-------------------------------------------------------------------|
E-------------------------------------------------------------------|




  Guitar 1
E[-----------------------------------------------------|
B[-----------------------------------------------------|
G[-----------------------------------------------------|
D[-----------------------------------------------------|
A[-7/9--9-9--9--9-x-11\-7--7/9--------------6-6--7-7---|
E[-5/7--7-7--7--7-x-10\-5--5/7--x-x--x--x-x-4-4--5-5---|
 [
 [Guitar 2                           Pick scrape
E[-----------------------------------------------------|
B[-----------------------------------\-\---------------|
G[------------------------------------\-\--------------|
D[-7-9--9-9--9--9----------7-9---------\-\-------------|
A[--------------------------------------\--------------|
E[-----------------------------------------------------|

  Guitar 1                                        ~~~~~
E[-----------------------------------------------------|
B[-----------------------------------------------------|
G[-----------------------------------------------------|
D[-----------------------------------------------------|
A[-7/9--9-9--9--9-x-11\-7--7/9--\--------------5--7b5b-|
E[-5/7--7-7--7--7-x-10\-5--5/7--\------------7---------|
 [
 [Guitar 2                           Pick scrape
E[-----------------------------------------------------|
B[-----------------------------------\-\---------------|
G[------------------------------------\-\--------------|
D[-7-9--9-9--9--9----------7-9---------\-\-------------|
A[--------------------------------------\--------------|
E[-----------------------------------------------------|

 Backing for guitar solo

E-----------------------------------------------------|
B-----------------------------------------------------|
G-----------------------------------------------------|
D-4/6--6-6--6--6-x-9\-4--4/6-------------3-3--5-5-----|
A-2/4--4-4--4--4-x-7\-2--2/4-x-x--x--x-x-1-1--3-3-----|
E-----------------------------------------------------|
 Rpt 6 X

 Rpt verse
 Rpt Bridge
 Rpt main riff

Ending

E--------------------------------------------|
B--------------------------------------------|
G--------------------------------------------|
D-7----------------(7)---------------9\------|
A-5----------------(5)---------------7\------|
E--------------------------------------------|



END
comments
We did not receive enough feedback on this tab! Please rate:
print report bad tab
1 2 3 4 5
I want to post or [tab]
guest
You may want to rate the tab now too:
select rating
Please do not post tabs as comments. Select "correction" instead!