Oops, an error
Loading. Please wait.

Come And Get It Tab

version 1
version 1

Whole song

Interactive

1,960 views 4 this week
no commentswrite comment
1 2 3 4 5
please rate
add to favorites
launch autoscroll
font size
0
reset
how to read this tab
guitar tuner
Tab Pro tools
  • play this tab
  • loop segment
  • change instrument
  • show fretboard
  • metronome
×
Best way to learn
"Come And Get It"
Autoscroll
slow
fast
+/-
esc
set tempo
stop
Contributor
Difficulty
novice
Come and Get it - Judas Priest
From Ram it Down

Tabbed by Anton



main riff and intro solo:
                                                                                
E||--------------------------|----------------------|--------------------------|
B||--------------------------|----------------------|--------------------------|
G||--3-----------3-----------|--3--0--3--5----------|--3-----------3-----------|
D||--3-----------3-----------|--3--0--3--5----------|--3-----------3-----------|
A||--------------------------|----------------------|--------------------------|
E||-----3--3--3-----3--3--3--|----------------------|-----3--3--3-----3--3--3--|

                                                                           
------------------------|--------------------------|----------------------|
------------------------|--------------------------|----------------------|
--3--0--3---------------|--3-----------3-----------|--3--0--3--5----------|
--3--0--3---------------|--3-----------3-----------|--3--0--3--5----------|
------------------------|--------------------------|----------------------|
-----------0----1----3--|-----3--3--3-----3--3--3--|----------------------|

                                                                             
--------------------------|------------------------|--13b-------------15----|
--------------------------|------------------------|------------11----------|
--3-----------3-----------|--3--0--3---------------|------------------------|
--3-----------3-----------|--3--0--3---------------|------------------------|
--------------------------|------------------------|------------------------|
-----3--3--3-----3--3--3--|-----------0----1----3--|------------------------|

                                                                                   
--------------15\-----|-----------------------------------------------------------|
------------------11--|--15-11-15-11-15-11-16-11-16-11-15-11-15-11-13-11-13-11-13-|
----------------------|-----------------------------------------------------------|
----------------------|-----------------------------------------------------------|
----------------------|-----------------------------------------------------------|
----------------------|-----------------------------------------------------------|

                                                                     
-------------------------------------------|--18~-------------------|
-------------------------------------------|------------------20-18-|
--14-10-14-17-14-12-14-17-14-15-14-12~-----|------------------------|
-------------------------------------------|------------------------|
-------------------------------------------|------------------------|
-------------------------------------------|------------------------|

                                                                        
------------------------|----------------------------------------------|
--18\---------18\----15-|--17---15-18-15-18-15----15-18-15-18-15-------|
------------------------|----------------------17----------------17-15-|
------------------------|----------------------------------------------|
------------------------|----------------------------------------------|
------------------------|----------------------------------------------|

                                     
--18-15-15\------------------------||
-----------------------------------||
--------------15-18-15-18-0\-------||
-----------------------------------||
-----------------------------------||
-----------------------------------||
comments
We did not receive enough feedback on this tab! Please rate:
print report bad tab
1 2 3 4 5
I want to post or [tab]
guest
You may want to rate the tab now too:
select rating
Please do not post tabs as comments. Select "correction" instead!