Oops, an error
Loading. Please wait.

Conquest Bass Tab

version 1
version 1

Whole song

Interactive

235 views 1 this week
no commentswrite comment
1 2 3 4 5
2 more votes to show rating
add to favorites
launch autoscroll
font size
0
reset
guitar tuner
Autoscroll
slow
fast
+/-
esc
set tempo
stop
Help us to improve Ultimate-Guitar.com Take our survey!
×
Author
Difficulty
intermediate
Band : judas priest
Álbum: nostradamus
Song: conquest
Bass :ian hill

Exelent soong i only put the  bass line according the guitar pro tab , enjoy the
tab all the metal maniacs

     Intro           * riff 1
G||-------------------|----------------------|--------------------|
D||-------------------|----------------------|--------------------|
A||-------------------|--0------2----3----5--|--5---------3----5--|
E||---------5-5-5\----|----------------------|--------------------|

Riff 2 Verse 1 and 2
|-------------------------------|-----------------------------|
|-------------------------------|-----------------------------|
|--7--7-7-7--5s-7--7-7--7-7-7-7-|--7--7-7-7--5s-7--7-7--7-8---|
|-------------------------------|-----------------------------|

Chorus riff 3
|-----------------|-----------------|-----------------|------------|-------------------|
|-----------------|-----------------|-----------------|------------|-------------------|
|-----------------|-----------------|-----------------|------------|-------------------|
|--5--------1-----|--3--------0-----|--5--------1-----|--0---------|--5--------1-------|

|--------------------|--------------------|-------------------|
|--------------------|--------------------|-------------------|
|--5--------2--------|--3--------7--------|-------------------|
|--------------------|--------------------|--5----------------|

Solo riff 4
|----------------------|------------------------------|
|----------------------|------------------------------|
|----------3------x----|------------------------------|
|--0----x--------------|--3s-5-5-5-5s--3-3-3-3-3s--8--|

After solo
Riff 5
|-------------------------|-------------------------|-------------------------|
|-------------------------|-------------------------|-------------------------|
|-------------------------|-------------------------|-------------------------|
|--7----7--7--7--7--7--7--|--5----5--5--5--5--5--5--|--3----3--3--3--3--3--3--|

|-------------------------|
|-------------------------|
|-------------------------|
|--2----2--2--2--2--2--2--|

|-------------------------|-------------------------|-------------------------|
|-------------------------|-------------------------|-------------------------|
|-------------------------|-------------------------|-------------------------|
|--7----7--7--7--7--7--7--|--5----5--5--5--5--5--5--|--3----3--3--3--3--3--3--|

|-------------------------|-------------------|
|-------------------------|-------------------|
|-------------------------|-------------------|
|--2----2--2--2--2--2--2--|--2----------------|

|-----------------------|------------------------|-----------------------|
|-----------------------|------------------------|-----------------------|
|--5----x--5----x--5----|--2----x--2----2--2--2--|--5----x--5----x--5----|
|-----------------------|------------------------|-----------------------|


|------------------------|
|------------------5-----|
|--2----x--2----2-----2--|
|------------------------|


structure Song:
Riff 1(4x)
Riff 2(4x)
Riff 3(1x)
Riff 1(2x)
Riff 2(4x)
Riff 3(1X)
Riff 1(4x)
Riff 4(8x)
Riff 5(1x)
Riff 3(fade out)

Transcribed by paulisguitar thank’s
Suggest correction
Give kudos to tab author, rate the tab!
1 2 3 4 5
comments
print report bad tab
guest
You may want to rate the tab now too:
select rating
Wanna post a correction for this tab? Suggest correction