Oops, an error
Loading. Please wait.

Conquest Tab

version 1
version 1

Whole song

Interactive

516 views 3 this week
no commentswrite comment
1 2 3 4 5
2 more votes to show rating
add to favorites
launch autoscroll
font size
0
reset
how to read this tab
guitar tuner
Autoscroll
slow
fast
+/-
esc
set tempo
stop
Help us to improve Ultimate-Guitar.com Take our survey!
×
Difficulty
intermediate
                       JUDAS PRIEST - conquest                    
                      From the Album NOSTRADAMUS 
                          Copyright 2008 sony
                  
 Transcribed by: thank's to ju.da.s

For Questions, Comments, Newest Version, or Corrections contact
(YOUR NAME): at (YOUR E-MAIL ADDRESS)to ultimate guitar.
 
tuning E
E -B - G -D - A -E

intro                          riff A

E||-----------------------|----------------------|----------------------|
B||-----------------------|----------------------|----------------------|
G||-----------------------|----------------------|----------------------|
D||-----------------------|--2------4----5----7--|--7--------L--5----7--|(x4)
A||-----------------------|--0------2----3----5--|--5--------L--3----5--|
E||-------------5-5-5\----|----------------------|----------------------|

 riff B
--------------------------------------|----------------------------------|
--------------------------------------|----------------------------------|
--9--------9--7s-9-----9--------------|--9--------9--7s-9-----9-----10---|
--9--------9--7s-9-----9--------------|--9--------9--7s-9-----9------9---|
-----7--7-----------7--7--7--7--7--7--|-----7--7-----------7--7--7-------|
--------------------------------------|----------------------------------|

 riff C(chorus)       
--------------------|--------------------|--------------------|
--------------------|--------------------|--------------------|
--------------------|--------------------|--------------------|
--7--------3--------|--5--------2--------|--7--------3--------|
--7--------3--------|--5--------2--------|--7--------3--------|
--5--------1--------|--3--------0--------|--5--------1--------|
     
-------------------|--------------------|--------------------|
-------------------|--------------------|--------------------|
-------------------|--------------------|--7--------4--------|
--2----------------|--7--------3--------|--7--------4--------|
--2----------------|--7--------3--------|--5--------2--------|
--0----------------|--5--------1--------|--------------------|

---------------------|-------------------|
---------------------|-------------------|
--5--------10--------|-------------------|
--5---------9--------|--7----------------|
--3---------7--------|--7----------------|
---------------------|--5----------------|

riff D (solo)   
----------------------|----------------------------------|
----------------------|----------------------------------|
----------5------x----|----------------------------------|
--2----x--5------x----|----------------------------------|
--2----x--3------x----|--5s-7-7-7-7s--5-5-5-5-5s--10---x-|
--0----x--------------|--3s-5-5-5-5s--3-3-3-3-3s---8---x-|

RIFF E 
|-------------------|-------------------|
|-------------------|-------------------|
|-------------------|-------------------|
|--9----------------|--7----------------|
|--9----------------|--7----------------|
|--7----------------|--5----------------|
        
------------------|-------------------|-------------------|-----------------|
------------------|-------------------|-------------------|-----------------|
------------------|-------------------|-------------------|-----------------|
--5---------------|--4----------------|--9----------------|--7--------------|
--5---------------|--4----------------|--9----------------|--7--------------|
--3---------------|--2----------------|--7----------------|--5--------------|
                
-------------------|-------------------|
-------------------|-------------------|
-------------------|-------------------|
--5----------------|--4----------------|
--5----------------|--4----------------|
--3----------------|--2----------------|

Riff F  
-----------------------|------------------------|
-----------------------|------------------------|
--7----x--7----x--7----|--4----x--4-------4-----|
--7----x--7----x--7----|--5----x--5----------5--|
--5----x--5----x--5----|--2----x--2----2--------|
-----------------------|------------------------|

song :

*riff A 4x
*riff B 8x
*chorus = riff C 1x
*riff A 2X
*riff B 8x
*chorus = riff C 1x
*riff A 4x
*solo :
*riff D all solos glenn and kk
*riff E 1X
*riff F 4X
*chorus / repeat all  
*the end




..  - palm mute          /  - slide up to
 \  - slide down to      ~  - vibrato
 h  - hammer on          b  - bend
 p  - pull off            Suffixes for bend
                          ph - pinch harmonic
                           f - full bend    h - half bend
*  - see comment           r - release      t - tap bend
X  - percussion mute       ~ - vibrato bend
@  - slight palm mute     () - ghost note, sustained note


Suggest correction
Give kudos to tab author, rate the tab!
1 2 3 4 5
comments
print report bad tab
guest
You may want to rate the tab now too:
select rating
Wanna post a correction for this tab? Suggest correction