Oops, an error
Loading. Please wait.

Deal With The Devil Tab

version 1
version 1

Whole song

Interactive

7,508 views 6 this week
no commentswrite comment
1 2 3 4 5
x 4
add to favorites
launch autoscroll
font size
0
reset
how to read this tab
guitar tuner
Autoscroll
slow
fast
+/-
esc
set tempo
stop
Help us to improve Ultimate-Guitar.com Take our survey!
×
Author
Difficulty
advanced
tuning:standard
tabbed by:shredder
artist:Judas priest
album:Angel of retribution
song:deal with the devil
year:2005

intro (main rhythm figure
E|--------------------------------------------------------|
B|--------------------------------------------------------|
G|-7/9-------------7/9--12--9---7/9-------------7/9-------|
D|-7/9-------------7/9--12--9---7/9-------------7/9--8--7-|
A|-5/7-------------5/7--10--7---5/7-------------5/7--8--7-|
E|-----0-0-0-0-0-0------------0-----0-0-0-0-0-0------6--5-|
       x x x x x x            x     x x x x x x
play four times for intro and verse

intro solo
E|-----12-12--10h12p10-10h12p10----10h12p10----10p8p7--------------|
B|------------------------------12----------12--------10p8p7-------|
G|-(9)~------------------------------------------------------9p7h9~|
D|-----------------------------------------------------------------|
A|-----------------------------------------------------------------|
E|-----------------------------------------------------------------|

verse solo
E|-12h15p12h15p12h15p12\3h5/17-12h15p12h15p12-|
B|--------------------------------------------|
G|--------------------------------------------|
D|--------------------------------------------|
A|--------------------------------------------|
E|--------------------------------------------|

second verse solo
E|--------------------------------------------------|
B|--------------------------------------------------|
G|--------------------------------------------------|
D|--------------------------------------------------|
A|-7h9h10-7h9h10-7h9h10-7h9h10-7h9h10-7h9h10--------|
E|-------------------------------------------7\0/12~|

pre-chorus
E|---------------------------------------------------|
B|---------------------------------------------------|
G|-12-12--11-11--9-9--7-7--5-5------5------5-5-4-2-0-|
D|-12-12--11-11--9-9--7-7--5-5------5------5-5-4-2-0-|
A|-10-10--9--9---7-7--5-5--3-3--3-3----3-3-----------|
E|---------------------------------------------------|
                                x x    x x

E|--------------------------------------|
B|--------------------------------------|
G|------2-2--4-4--5-5--4------2-4-2-----|
D|-5-5--2-2--4-4--5-5--4----4-------4-3-|
A|-5-5--0-0--2-2--3-3--2--2-------------|
E|-3-3----------------------------------|
play twice

Chorus
E|-----------------------------------|
B|-----------------------------------|
G|---0-2---2-0-2---------------------|
D|-2-0-2---2-0-2-2---------------5-2-|
A|-2-------------2---------------5-2-|
E|-----------------0-0-0-0-0-0-0-3-0-|
                   x x x x x x x
play four times

then play main riff for verse again

second verse solo
E|-12-12p10h12p10----12p10h12p10----10h12p10h12p10-------------------|
B|----------------12-------------12----------------17-10h11h12p11p10-|
G|-------------------------------------------------------------------|
D|-------------------------------------------------------------------|
A|-------------------------------------------------------------------|
E|-------------------------------------------------------------------|

E|-----------|
B|-----------|
G|-12p11p9~~~|
D|-----------|
A|-----------|
E|-----------|

second verse second solo
E|----------------------------------------------------------------|
B|----------------------------------------------------------------|
G|-----(9)~-----(9)~-----(9)~-------------------------------------|
D|-7b9------7b9------7b9------12-7h9p7-12-7h9p7-12-7h9p7-12-7h9p7-|
A|----------------------------------------------------------------|
E|----------------------------------------------------------------|
                               t        t        t        t

then play pre-chorus again

first solo over second pre-chorus
E|-7~5h7p5-------|
B|---------7-5\4~|
G|---------------|
D|---------------|
A|---------------|
E|---------------|

second solo over second pre-chorus
E|-10==10----12~~~|
B|-12==---12------|
G|----------------|
D|----------------|
A|----------------|
E|----------------|

then play chorus again

Bridge
E|-----------------------------------------------------------------|
B|-----------------------------------------------------------------|
G|-2-----2---------2-----2---------2-----2---------2-----2---------|
D|-2-----2---------2-----2---------2-----2---------2-----2---------|
A|---0-0---0-0-0-0---0-0---0-0-0-0---0-0---0-0-0-0---0-0---0-0-0-0-|
E|-----------------------------------------------------------------|
     x x   x x x x   x x   x x x x   x x   x x x x   x x   x x x x

E|-----------------------------------------------------------------|
B|-----------------------------------------------------------------|
G|-0-----0---------0-----0---------2-----2---------2-----2---------|
D|-0-----0---------0-----0---------2-----2---------2-----2---------|
A|---0-0---0-0-0-0---0-0---0-0-0-0---0-0---0-0-0-0---0-0---0-0-0-0-|
E|-----------------------------------------------------------------|
     x x   x x x x   x x   x x x x   x x   x x x x   x x   x x x x

E|---------------------|
B|---------------------|
G|-2-----2---------7===|
D|-2-----2---------7===|
A|---0-0---0-0-0-0-5===|
E|---------------------|
     x x   x x x x

-guitar solo

Rhythm under solo
E|---------------------------|
B|---------------------------|
G|-2-------2-------2-----2-2-|
D|-2-------2-------2-----2-2-|
A|---0-0-0---0-0-0---0-0-----|
E|---------------------------|
     x x x   x x x   x x
play twice


E|---------------------------------------------------|
B|---------------------------------------------------|
G|-7-------7-------5-------2-------2-------2-----2-2-|
D|-7-------7-------5-------2-------2-------2-----2-2-|
A|---5-5-5---5-5-5---3-3-3---0-0-0---0-0-0---0-0-----|
E|---------------------------------------------------|
     x x x   x x x   x x x   x x x   x x x   x x
then play this whole thing two more times

E|-------------------------------------------------------------------------|
B|-------------------------------------------------------------------------|
G|-5==4==------------------------------------------------------------------|
D|-5==4==2-----------------------------------------------------------------|
A|-3==2==2-----------------------------------------------------------------|
E|-------0-0-0-0-0-0-0-0-0-0-0-0-0-0-0-0-0-0-0-0-0-0-0-0-0-0-0-0-0-0-0-0-0-|
         x x x x x x x x x x x x x x x x x x x x x x x x x x x x x x x x

E|-------------|
B|-------------|
G|-------------|
D|-------------|
A|-------------|
E|-0-2-3-5-0-2-|
play that twice

E|--------------------------|
B|--------------------------|
G|-5==4==---2==5==4==--2====|
D|-5==4==5==2==5==4==5-2====|
A|-3==2==5==0==3==2==5-0====|
E|-------3==---------3------|

solo
E|------------------------------------------------------------|
B|-10-10-8b10~13-10-10-10-12-10-10-10-13-10-10-10-15-10-10-10-|
G|------------------------------------------------------------|
D|------------------------------------------------------------|
A|------------------------------------------------------------|
E|------------------------------------------------------------|

E|----------------------------------------------------------|
B|-13-10-10-10-12-10-10-10-13-10-10-10-15-------------------|
G|----------------------------------------------------------|
D|------------------------------------------------5-7-5-(7)~|
A|------------------------------------------3-5-7-----------|
E|----------------------------------------5-----------------|

E|------------------------------------------17-15-17-15----17-15----|
B|------------------------------------------------------17-------17~|
G|------------------------------------------------------------------|
D|------------------------------------------------------------------|
A|-0-0-0-0-0-0-0-0-0-0-0-0-0-0-0-0-12-10-12-------------------------|
E|------------------------------------------------------------------|

E|-12h15p12\-15h17p12h17h20p17-15-12~/24p22h24p22-22-20-19-20p19p17-|
B|------------------------------------------------------------------|
G|------------------------------------------------------------------|
D|------------------------------------------------------------------|
A|------------------------------------------------------------------|
E|------------------------------------------------------------------|

E|----------17h19h20\-17p15h17p15----15-17-17-15-------------|
B|-20p19p17-----------------------17-------------17-15-------|
G|-----------------------------------------------------17-16-|
D|-----------------------------------------------------------|
A|-----------------------------------------------------------|
E|-----------------------------------------------------------|

E|-12-17-15-17-17p15-------17p15h17p15-------------------|
B|-------------------17p15-------------17-16-15-13-13-15~|
G|-------------------------------------------------------|
D|-------------------------------------------------------|
A|-------------------------------------------------------|
E|-------------------------------------------------------|

E|-17-17-20p19p17-17-17-17h20p17-17h19p17-17-17~|
B|----------------------------------------------|
G|----------------------------------------------|
D|----------------------------------------------|
A|----------------------------------------------|
E|----------------------------------------------|

E|-----------------------------------------------------------------|
B|-----------------------------------------------------------------|
G|-----------------------------------------------------------------|
D|-----------------------------------------------------------------|
A|-0-0-0-0-0-0-0-0-0-0-0-0-0-0-0-0-0-0-0-0-0-0-0-0-0-0-0-0-0-0-0-0-|
E|-----------------------------------------------------------------|
   x x x x x x x x x x x x x x x x x x x x x x x x x x x x x x x x

E|-------------------------------------------------------------------------|
B|-13-10-10-10-15-10-10-10-13-10-10-10-15-10-10-10-17-15-15-15-17-15-15-15-|
G|-------------------------------------------------------------------------|
D|-------------------------------------------------------------------------|
A|-------------------------------------------------------------------------|
E|-------------------------------------------------------------------------|

E|-15-15-15-15-17-15-15-15-17~|
B|----------------------------|
G|----------------------------|
D|----------------------------|
A|----------------------------|
E|----------------------------|

E|-----------------------------------------------------------|
B|-----------------------------------------------------------|
G|-4-4-3-2-2-3-4-4-3-2-2-3-2-2-3-4==2-4-2---2---------4/~~~~~|
D|-2-2-1-0-0-1-2-2-1-0-0-1-0-0-1-2==0-2-0-5-0---------2/~~~~~|
A|----------------------------------------3------------------|
E|-----------------------------------------------------------|

E|----20-12-19-17-------------------------------------------------|
B|----20-12-19-17-------------------------------------------------|
G|-16-------------5-4-3-5-4-3-------------5-4-3-5-4-3-------------|
D|-14-------------------------5-4-3-5-4-3-------------5-4-3-5-4-3-|
A|----------------------------------------------------------------|
E|----------------------------------------------------------------|

E|-15p12----------------17p15p12-------------15p12-------------12~~|
B|-------15p12-------------------15p12-------------15p12-------13~~|
G|-------------14p12h15----------------14p12-------------14p12-----|
D|-----------------------------------------------------------------|
A|-----------------------------------------------------------------|
E|-----------------------------------------------------------------|

Then play the chorus two times

outro solo 1
E|-24~12-12-14b16r14-----------------------------------15~15h17p15----|
B|-------------------12~~~12~~~13p10h12p10-15h17p15----------------17~|
G|--------------------------------------------------16----------------|
D|--------------------------------------------------------------------|
A|--------------------------------------------------------------------|
E|--------------------------------------------------------------------|

End
E|-------------|
B|-------------|
G|-----9-----9-|
D|---9-----9---|
A|-7-----6-----|
E|-------------|
Play four times

second outro solo
E|-0//////////24~~~~~~|
B|--------------------|
G|--------------------|
D|--------------------|
A|--------------------|
E|--------------------|

That will do it.  This was a very hard song to tab. but it is the whole song and it will 
you a good idea of what is played.
~shredder

key
p=pull off
h=hammeron
b=bend
r=release
t=tap
\-slide down
/=slide up
()~=pinch harmonic
==let ring
x=palm mute

enjoy yall!
Suggest correction
comments
print report bad tab
guest
You may want to rate the tab now too:
select rating
Wanna post a correction for this tab? Suggest correction