Oops, an error
Loading. Please wait.

Deceiver Tab

version 1
version 1

Whole song

Interactive

5,970 views 21 this week
2 commentsread comments
1 2 3 4 5
excellent!
x 3
add to favorites
launch autoscroll
font size
0
reset
how to read this tab
guitar tuner
Tab Pro tools
  • play this tab
  • loop segment
  • change instrument
  • show fretboard
  • metronome
Autoscroll
slow
fast
+/-
esc
set tempo
stop
Contributor
Band:  Judas Priest
Album: Sad Wings Of Destiny
Song:  Deceiver

Copyright (c)  (CBS) (1976)
Version 1.0 - (13/02/05)

Transcribed By: Steve
Email:          stephen.elvidge1@ntlworld.com


.  - palm mute           /  - slide up to
\  - slide down to       ~  - vibrato
h  - hammer on           b  - Bend
p  - pull off            Suffixes for bend
t  - tap                 f  - full bend    h - half bend
ph - pinched harmonic    q  - quarter bend t - tap bend
*  - see comment         ^  - Hold bend    r release bend
x  - Stuccatto           ~  - vibrato bend
,  - slight palm mute    () - ghost note, sustained note
"  - tremolo note        <> - Trill

Tunning E A D G B E

Intro / main riff

 Guitar 1

     h [--PM-]  h [--PM-]  h   [--PM-]
E----------------------------------------------|
B----------------------------------------------|
G-----------------------------------9p-7--7----|
D-7--9-------7--9-------7--9--------9p-7--7----|
A-7-(7)7-7-7-7-(7)7-7-7-7-(7)7-7-7--7--7--7----|
E------0-0-0------0-0-0------0-0-0-------------|

Rpt once before second guitar and drums enter.

 Guitar 2
                                    [--PM--]
E----------------------------------------------|
B----------------------------------------------|
G-9----------9---------\7-----/9---------------|
D----------------------------------------------|
A-7----------7---------\5-----/7----2p0--------|
E-0----------0-----------------0--------3/5----|

E----------------------------------------------|
B----------------------------------------------|
G-7----------7---------\6------/7---/9---------|
D----------------------------------------------|
A-5----------5---------\4------/5---/7---------|
E----------------------------------------------|

Rpt 2 X

 Verse riff

 [--------------------------PM----------------------------------]
E-----------------------------------------------------------------|
B-----------------------------------------------------------------|
G-----------------------------------------------------------------|
D-----------------------------------------------------------------|
A-7--------7--------7--------7--------7--------7--------7---------|
E-0--0-0-0-0--0-0-0-0--0-0-0-0--0-0-0-0--0-0-0-0--0-0-0-0--0-0-0--|

E----------|
B----------|
G-9p-7--7--|
D-9p-7--7--|
A-7--7--7--|
E----------|

 Rpt Verse riff 2 X

 Chorus
 Guitar 1
               [-------PM--------]              [-------PM--------]
E[-------------------------------------------------------------------|
B[-------------------------------------------------------------------|
G[-------------------------------------------------------------------|
D[-7-----\4------------------------7---------------------------------|
A[-5-----\2------------------------5-------5-------------------------|
E[--------------0--0-0-0-0--0-0-0----------3-----0--0-0-0-0--0-0-0---|
 [
 [Guitar 2
E[-------------------------------------------------------------------|
B[-------------------------------------------------------------------|
G[-------------------------------------------------------------------|
D[-7-----\4-----9-------(9)--------7-------------9-------(9)---------|
A[-5-----\2-----7-------(7)--------5-------5-----7-------(7)---------|
E[--------------0-------(0)----------------3-----0-------(0)---------|

 Guitar 1
                             [-----------------PM------------------]
E[-------------------------------------------------------------------|
B[-------------------------------------------------------------------|
G[-------------------------------------------------------------------|
D[-7------------------4----/9----------------------------------------|
A[-5------5-----7-----2----/7--------------------------------2-------|
E[--------3-----5-------------0--0-0-0-0--0-0-0--0-2-3-5-3-5---5-3-5-|
 [
 [Guitar 2                                      [--------PM--------]
E[-------------------------------------------------------------------|
B[-------------------------------------------------------------------|
G[-------------------------------------------------------------------|
D[-7------------------4----/9---------(9)----------------------------|
A[-5------5-----7-----2----/7---------(7)--------------------2-------|
E[--------3-----5-----------0---------(0)--------0-2-3-5-3-5---5-3-5-|
  

 Rpt verse and chorus


 Backing for guitar solo is verse riff and chorus but end on a D chord
 rather than play the palm muted scale.

 Rpt main riff

    [--PM--]  [--PM--]  [--PM--]
E-----------------------------------------|
B-----------------------------------------|
G-----------------------------------------|
D-----------------------------------2-2---|
A-----------------------------------0-0---|
E-3p0-0-0-0-3p0-0-0-0-3p0-0-0-0-3---------| Rpt 4 X


 Last chorus

               [--PM---] [--PM---]              [--PM---] [--PM---]               
E-------------------------------------------------------------------|
B-------------------------------------------------------------------|
G-------------------------------------------------------------------|
D-7-----\4------------------------7---------------------------------|
A-5-----\2------------------------5-------5-------------------------|
E-------------3p0-0-0-0-3p0-0-0-0---------3----3p0-0-0-0-3p0-0-0-0--|

                             [------PM---------]
E------------------------------------------------|
B------------------------------------------------|
G------------------------------------------------|
D-7------------------4----/9---------------------|
A-5------5-----7-----2----/7---------------------|
E--------3-----5-------------0--0-0-0-0--0-0-0---|

 [--------PM--------]
E--------------------------------|
B--------------------------------|
G--------------------------------|
D--------------------------/9----|
A-------------2-------2-/5-/7----|
E-0-2-3-5-3-5---5-3-5-------0----|

 Accoustic guitar 1

E[---------0--------3p2-----------0------------------------|
B[------0---------3-----3-------1--------------------------|
G[---0----------2---------2---------------------0----------|
D[------------0---------------2--------------4----4-----4--|
A[-2------------------------3-------------2----------2-----|
E[-0--------------------------------3p2p0------------------|
 [
 [Accoustic guitar 2
 [
E[---------0--------3p2---------------------------12-12----|
B[------0---------3-----3-----8---8-8-7---12-12-12-----12--|
G[---0----------2---------2-9---9-------9------------------|
D[------------0--------------------------------------------|
A[-2-------------------------------------------------------|
E[-0-------------------------------------------------------|

 Rpt to fade



END
comments
We did not receive enough feedback on this tab! Please rate:
print report bad tab
1 2 3 4 5
2 comments total.
0 reply
shredder_666 wrote on December 7 2006, 10:43 am

nice!

0 reply
Anjohl wrote on September 3 2011, 09:13 pm

I am not sure about the last chorus, it sounds like the first note in the 3-0 pulloff is higher than the chord that follows it, whereas you have it at a `G`, the same as the pulloff note. It doesn`t sound right.

I want to post or [tab]
guest
You may want to rate the tab now too:
select rating
Please do not post tabs as comments. Select "correction" instead!