Oops, an error
Loading. Please wait.

Delivering The Goods Tab

version 1
version 1

Whole song

Interactive

12,235 views 1 this week
no commentswrite comment
1 2 3 4 5
x 6
add to favorites
launch autoscroll
font size
0
reset
how to read this tab
guitar tuner
Autoscroll
slow
fast
+/-
esc
set tempo
stop
Help us to improve Ultimate-Guitar.com Take our survey!
×
Author
Difficulty
intermediate
Band:  Judas Priest
Album: Killing Machine
Song:  Delivering the Goods

Copyright (c)  (CBS) (1978)
Version 1.0 - (18/01/06)




.  - palm mute           /  - slide up to
\  - slide down to       ~  - vibrato
h  - hammer on           b  - Bend
p  - pull off            Suffixes for bend
t  - tap                 f  - full bend    h - half bend
ph - pinched harmonic    q  - quarter bend t - tap bend
*  - see comment         ^  - Hold bend    r release bend
x  - Stuccatto           ~  - vibrato bend
,  - slight palm mute    () - ghost note, sustained note
"  - tremolo note        <> - Trill

Tunning E A D G B E
 
 Intro

                                               ~~~~~~~~~~~~~~~~~~~~
E-------------------------------------------------------------------|
B-14b-flick pick up switch back & forth-----------------------------|
G-14b----with volume on front pick up--r14p12-----------------------|
D------------turned down----------------------14----------(14)------|
A-------------------------------------------------------------------|
E-------------------------------------------------------------------|

E-------------------------------------------------------------------|
B-14b-flick pick up switch back & forth----------12-----------------|
G-14b----with volume on front pick up--r14p12----12-----------------|
D------------turned down----------------------14----14p12-14\9------|
A-------------------------------------------------------------------|
E-------------------------------------------------------------------|


E---------------------------------------------------|
B-7----------5--------------------------------------|
G-7----------5--------------------------------------|
D---9p7-9p7----7p5----------------------------------|
A------------------7-2--fades in to main riff-------|
E--------------------0------------------------------|

 Main Riff / Verse Riff

E----------------------------------------|
B----------------------------------------|
G----------------------------------------|
D---5-----------5-7-(7)---5-------5-7-5--|
A---5-7p5-7-(7)-5-7-(7)---5-7p5-7-5-7-5--|
E-0---------------------0---------3-5-3--|Rpt 3 X

E-----------------------------------------|
B-----------------------------------------|
G-----------------------------------------|
D---5-----------5-7-(7)---5-------4-5-6-6-|
A---5-7p5-7-(7)-5-7-(7)---5-7p5-7-4-5-6-6-|
E-0---------------------0---------2-3-4-4-|


E----------------------------------------|
B----------------------------------------|
G---5-----------5-7-(7)---5-------5-7-5--|
D---5-7p5-7-(7)-5-7-(7)---5-7p5-7-5-7-5--|
A-0---------------------0---------3-5-3--|
E----------------------------------------|

E----------------------------------------|
B----------------------------------------|
G----------------------------------------|
D---5-----------5-7-(7)---5-------5-7-5\-|
A---5-7p5-7-(7)-5-7-(7)---5-7p5-7-5-7-5\-|
E-0---------------------0---------3-5-3\-|

 Bridge

E-------------------------------------|
B-------------------------------------|
G----4--2--4p2------------2-----2-2---|
D--------------4-p0-2---------------2-|
A-2-----------------0-3p0---3p0-----0-|
E-------------------------------------|

 Chorus
      PM               [-PM]
E-----------------------------|
B-12\-------------------------|
G-12\-------------------------|
D-12\----9\7-7-7/9-9-9--------|
A-10\----7\5-5-5/7-7-7--------|
E----0-0---------------0-0-0--| Rpt 3 X

      PM               
E------------------------------------------|
B-12\--------------------------------------|
G-12\--------------------------------------|
D-12\----9\7-7-7-7\4-4-4--------(4)--------|
A-10\----7\5-5-5-5\2-2-2--------(2)--------|
E----0-0-----------------------------------|

 Rpt Verse
 Rpt Bridge and Chorus

 Backing for solo

   [----------PM----------]
E------------------------------|
B------------------------------|
G------------------------------|
D-6-------------------------9\-|
A-4-4-4-4-4-4-4-4-4-4-4-4-4-7\-|
E------------------------------| Rpt 4 X

   [----------PM----------]
E-------------------------------|
B-------------------------------|
G-------------------------------|
D-9-------------------------12\-|
A-7-7-7-7-7-7-7-7-7-7-7-7-7-10\-|
E-------------------------------| Rpt 4 X

   
E----|
B----|
G----|
D-11-|
A-9--|
E----|

 After lead fill

  Guitar 1
   [PM] PM    PM    PM
E[-----------------------------------------------------|
B[----------------------------------------------8------|
G[-----5---5----------5-7brp5-7p5-----5---5-----7--7---|
D[-----5---5-7---7----5-7brp5-7p5-----5---5-7------7---|
A[-0-0---0-----0-0--0-------------0-0---0-----0--------|
E[-----------------------------------------------------|
 [Guitar 2
E[-----------------------------------------------------|
B[-----------------------------------------------------|
G[-2---------------------(2)---------------------------|
D[-2---------------------(2)---------------------------|
A[-0---------------------(0)---------------------------|
E[-----------------------------------------------------|

  Guitar 1
   [PM] PM    PM    PM
E[-----------------------------------------------------|
B[----------------------------------------------8------|
G[-----5---5----------5-7brp5-7p5-----5---5-----7--7---|
D[-----5---5-7---7----5-7brp5-7p5-----5---5-7------7---|
A[-0-0---0-----0-0--0-------------0-0---0-----0--------|
E[-----------------------------------------------------|
 [Guitar 2
E[----------------------------------------------3------|
B[----------------------------------------------3--3---|
G[-2---------------------(2)--------------------0--2---|
D[-2---------------------(2)--------------------0--0---|
A[-0---------------------(0)---------------------------|
E[----------------------------------------------3------| Rpt

  Guitar 1
   [PM] PM    PM    PM
E[-----------------------------------------------------|
B[----------------------------------------------8------|
G[-----5---5----------5-7brp5-7p5-----5---5-----7--7---|
D[-----5---5-7---7----5-7brp5-7p5-----5---5-7------7---|
A[-0-0---0-----0-0--0-------------0-0---0-----0--------|
E[-----------------------------------------------------|
 [Guitar 2
 [ [PM] PM    PM    PM
E[----------------------------------------------3------|
B[----------------------------------------------3--3---|
G[-----5---5----------5-7brp5-7p5-----5---5-----0--2---|
D[-----5-7-5-7---7----5-7brp5-7p5-----5-7---7---0--0---|
A[-0-0---------0-0--0-------------0-0---------0--------|
E[----------------------------------------------3------| Rpt 3 X 

  Guitar 1
   [PM] PM    PM    PM
E[------------------------------------------------------------------|
B[------------------------------------------------6-6\5-----8-8\7---|
G[-----5---5----------5-7brp5-7p5-----5---5-------5-5-5-----7-7-7---|
D[-----5---5-7---7----5-7brp5-7p5-----5---5-7-----------------------|
A[-0-0---0-----0-0--0-------------0-0---0-----0---------------------|
E[------------------------------------------------------------------|
 [Guitar 2
 [ [PM] PM    PM    PM
E[------------------------------------------------------------------|
B[--------------------------------------------------------3---(3)---|
G[-----5---5----------5-7brp5-7p5-----5---5---------------2---(2)---|
D[-----5-7-5-7---7----5-7brp5-7p5-----5-7---7---5---(5)---0---(0)---|
A[-0-0---------0-0--0-------------0-0---------0-3---(3)-------------|
E[------------------------------------------------------------------|

 Rpt Verse, Bridge and Chorus

 Last time on chorus
      PM            PM   PM PM  PM  PM               
E-------------------------------------------------------------------|
B-12\---------------------------------------------------------------|
G-12\---------------------------------------------------------------|
D-12\----9\7-7-7-7\4---4---4---4---4---4-4------------(4)-----------|
A-10\----7\5-5-5-5\2-0-2-0-2-0-2-0-2-0-2-2------------(2)-----------|
E----0-0------------------------------------------------------------|

 Drum solo

      
E------|
B-12\--|
G-12\--|
D-12\--|
A-10\--|
E------|



END

Suggest correction
comments
print report bad tab
guest
You may want to rate the tab now too:
select rating
Wanna post a correction for this tab? Suggest correction