Oops, an error
Loading. Please wait.

Demonizer Tab

version 1
version 1

Whole song

Interactive

11,124 views 3 this week
2 commentsread comments
1 2 3 4 5
accurate
x 5
add to favorites
launch autoscroll
font size
0
reset
how to read this tab
guitar tuner
Autoscroll
slow
fast
+/-
esc
set tempo
stop
Help us to improve Ultimate-Guitar.com Take our survey!
×
This song is definitely in drop d tuning rather than half step down(ie drop c#)
Some of its in 3/4 time(eg verse) and some in 4/4(eg intro,main riff and stuff) which is 
strange! I haven't marked pinch harmonics on because its kindof obvious where they are.
Intro
e|---------------------------|---------------------------------------------|
B|---------------------------|-end-of-intro--------------------------------|
G|o-------------------------o|---------------------------------------------|
D|o-----------------------6-o|-----------------------6---------------------|
A|------6--5----6-5---5------|------6--5--6-5---5--------------------------|
D|-0--0-------------0---0----|-0--0-----------0----0-----------------------|

Main riff
e|---------------------------------|--------------------------------|
B|---------------------------------|--------------------------------|
G|---------------------------------|--------------------------------|
D|---------------------------------|--------------------------------|
A|---------5---------------5-------|--------5---------------5-------|
D|-0-6-3-0---6-0-6-3-0-5-0---3-2-0-|--6-3-0---6-0-6-3-0-5-0---3-2-0-|

Verse
e|------------------------|-----------------------|
B|---pm|---pm|---pm-------|---pm|---pm|---pm------|
G|-7-----7-----7----5--8--|-7-----7-----7---8--5--|
D|-7-----7-----7----5--8--|-7-----7-----7---8--5--|
A|-5-----5-----5----------|-5-----5-----5---6--3--|
D|-0-0-0-0-0-0-0-0--------|-0-0-0-0-0-0-0-0-------|

e|------------------------|-----------------------|
B|---pm|---pm|---pm-------|---pm|---pm|---pm------|
G|-7-----7-----7----5--8--|-5-----5-----5---7--8--|
D|-7-----7-----7----5--8--|-5-----5-----5---7--8--|
A|-5-----5-----5----------|-3-3-3-3-3-3-3-3-5--6--|
D|-0-0-0-0-0-0-0-0--------|-----------------------|

Interlude
e|-----------------------------------|
B|---pm--|-----pm--|-----pm--|----pm-|
G|o---------------------------------o|
D|o---------------------------------o|
A|---------3---------5---------3-----|
D|---0-0-0-3---0-0-0-5---0-0-0-3--0--|
verse again with basic kind of lead:
e|-----------|----------|---------|-----------|
B|--10-------|-10-------|-10------|-8---------|
G|o-12b------|-12b------|-12b-----|-10b------o|
D|o----------|----------|---------|----------o|
A|-----------|----------|---------|-----------|
D|-----------|----------|---------|-----------|

Verse continued
e|-----------------------|----------------------|---------------------|-------------|
B|---pm|---pm|-----------|---pm|---pm|----------|---pm|---pm|---------|-pm------|---|
G|-----------------------|----------------------|---------------------|-------------|
D|-7-----7-----7---5--8--|-7-----7-----7--8--5--|-5-----5-----5-8-5-7-|-----------3~|
A|-7-----7-----7---5--8--|-7-----7-----7--8--5--|-5-----5-----5-8-5-7-|-------------|
D|-7-7-7-7-7-7-7---5--8--|-7-7-7-7-7-7-7--8--5--|-5-5-5-5-5-5-5-8-5-7-|-0-2-3-0-2---|

Chorus                                           |1
e|----------------------------------------------|---------------|
B|-pm--------|----pm--------|-----pm--------|---|-pm|-----------|
G|-------------10-------------12--------------10|---------------|
D|-------------10-------------12--------------10|---------------|
A|-0-0-0-0-0-0-8--0-0-0-0-0-0-10--0-0-0-0-0-0-8-|-0-0-6--3-2-1--|
D|-0-0-0-0-0-0----0-0-0-0-0-0-----0-0-0-0-0-0---|-0-0-6--3-2-1--|

|2
e|--------------------------|---------------------------------------------|
B|--------------------------|------------pm|------------------------------|
G|--------------------------|---------------------------------------------|
D|------------------------6-|---------------------------------------------|
A|------6--5----6-5---5-----|------6--5--0-0-6--3-2-1---------------------|
D|-0--0-------------0---0---|-0--0-------0-0-6--3-2-1---------------------|

Solo rhythm 1(maybe not the exact numbers of 2s but you get the idea)
e|-----------------------------------------------------|
B|-pm------------------------------------------------|-|
G|-----------------------------------------------------|
D|-----------------------------------------------------|
A|-----------------------------------------------------|
D|-2-2-2-2-2-2-2-2-3-2-2-2-2-5-2-2-2-2-3-2-2-2-2-3-2-0-|

Solo rhythm 2
e|---------------------------------|--------------------------------|
B|---pm--------------------|-------|--pm------------------------|---|
G|-7-----------------------------3-|--------------------------------|
D|-7-----------------------------3-|--3-3-3-3-3-3-3-3-3-3-3-3-3-3-3-|
A|-5-0-0-0-0-0-0-0-0-0-0-0-0-3-0-1-|--1-1-1-1-1-1-1-1-1-1-1-1-1-1-3-|
D|-0-0-0-0-0-0-0-0-0-0-0-0-0-3-0---|------------------------------3-|

e|---------------------------------|--------------------------------|
B|---pm------------------------|---|--pm------------------------|---|
G|-------------------------------5-|------------------------------5-|
D|-------------------------------5-|--5-5-5-5-5-5-5-5-5-5-5-5-5-5-5-|
A|---3-3-3-3-3-3-3-3-3-3-3-3-3-3-3-|--3-3-3-3-3-3-3-3-3-3-3-3-3-3-3-|
D|---3-3-3-3-3-3-3-3-3-3-3-3-3-3---|--------------------------------|

e|---------------------------------|--------------------------------|
B|---pm--------------------|-------|--pm------------------------|---|
G|-7-----------------------------3-|--------------------------------|
D|-7-----------------------------3-|--3-3-3-3-3-3-3-3-3-3-3-3-3-3-5-|
A|-5-0-0-0-0-0-0-0-0-0-0-0-0-3-0-1-|--1-1-1-1-1-1-1-1-1-1-1-1-1-1-5-|
D|-0-0-0-0-0-0-0-0-0-0-0-0-0-3-0---|------------------------------5-|

e|---------------------------------|--------------------------------|
B|---pm--------|-----pm--------|---|--pm----------|-----------------|
G|---------------------------------|--------------------------------|
D|---------------3---------------7-|--------------------------------|
A|---5-5-5-5-5-5-3---3-3-3-3-3-3-7-|--7-7-7-7-7-7-7-7-8-7-5-7-5-3-2-|
D|---5-5-5-5-5-5-3---3-3-3-3-3-3-7-|--7-7-7-7-7-7-7-7-8-7-5-7-5-3-2-|

solo rhythm 3
e|---------|---------|---------|---------|----------|
B|---------|---------|---------|---------|----------|
G|-3-----5-|-7-----5-|-3---2---|---------|----------|
D|-3-----5-|-7-----5-|-3---2---|-5-----8-|-7--------|
A|-1-----3-|-5-----3-|-1---0---|-5-----8-|-7--------|
D|---------|---------|---------|-5-----8-|-7--------|

e|---------|---------------------------------|--------|--------------------|
B|---------|---------------------------------|--------|--------------------|
G|---------|---------------------------------|--------|--------------------|
D|-1---0---|---------------------------------|-1---5--|--------------------|
A|-1---0---|---------------------------------|-1---5--|-5-7-8-10-----------|
D|-1---0---|-5-5-5-5-7-7-7-7-8-8-8-8-3-3-3-3-|-1---5--|-5-7-8-10-----------|


e|---------|---------------------------------|--------|--------|
B|---------|---------------------------------|--------|--------|
G|---------|---------------------------------|-----3--|-----5--|
D|-1---0---|---------------------------------|-1---3--|-3---5--|
A|-1---0---|---------------------------------|-1---1--|-3---3--|
D|-1---0---|-5-5-5-5-7-7-7-7-8-8-8-8-3-3-3-3-|-1------|-3------|

Outro
e|-------------------------------------------|
B|-------------------------------------------|
G|-------------------------------------------|
D|-------------------------------------------|
A|-3-2-1----3-2-1-----3-2-1----3-2-1--3-2-0--|
D|-3-2-1----3-2-1-----3-2-1----3-2-1--3-2-0--|
Suggest correction
comments
print report bad tab
2 comments total.
0 reply
valdean 102 wrote on March 28 2009, 06:48 am

Great!
I have been waiting a long time for this!

0 reply
Eddyhendrix28 144 wrote on June 22 2009, 11:34 pm

so damn ****ing right

guest
You may want to rate the tab now too:
select rating
Wanna post a correction for this tab? Suggest correction