Oops, an error
Loading. Please wait.

Desert Plains Bass Tab

version 1
version 1

Whole song

Interactive

1,574 views 9 this week
no commentswrite comment
1 2 3 4 5
accurate
x 4
add to favorites
launch autoscroll
font size
0
reset
guitar tuner
Tab Pro tools
  • play this tab
  • loop segment
  • change instrument
  • show fretboard
  • metronome
×
Best way to learn
"Desert Plains"
Autoscroll
slow
fast
+/-
esc
set tempo
stop
Difficulty
novice
|| Song: Desert Plains                       ||
|| Band: Judas Priest                        ||
||                                           ||
|| Transcribed by: Panos "The Cliff" Priftis ||
||                                           ||
|| Date: 18th November 2003 
     
Join the riffs together by hearing the song.

Riff 1
G|-----------------------------------------------------|
D|----------------------------------------1-11---------|
A|-3-333-333-33-1-11-------3-333-333-33---------1-1-1--|
E|-------------------1-1-1-----------------------------|


Riff 2
G|-------------------------------------------------|
D|-------------------------------------------------|
A|------------1-11-111-11--3-33333-3-33-6-66-66-66-|
E|-4-44-444-4--------------------------------------|

G|----------------------------------------|
D|----------------------------------------|
A|----------------------------------------|
E|-4-44-444-4-44-444-1-11-1111-3-33-3333--|

Bridge x2
G|----------7-----5-----------7-----7-----5-----------|
D|--------7-----5-------5---7-----7-----5-------5-----|
A|---1/5------3-------5---5-----5-----3-------5-------|
E|-3----------------3-----------------------3---------|

During guitar solo play this riff repeatedly
G|-----------------------------------------------|
D|-----------------------------------------------|
A|-----------------------------------------------|
E|-5-555-55-555-55-555-55-555-5--1-11-3-33--5-55-|

=============================================================================
==                          TABLATURE EXPLANATION                          ==
=============================================================================
----------                            ----------
----5h8--- Hammeron                   ----(8)--- Ghost Note
----------                            ----------
----5p8--- Pulloff                    ---8-[8]-- Tie
----------                            ----------
----5/8--- Slide Up                   -----x---- Dead Note
----------                            ----------
----58--- Slide Down                 ----------
----------                            ||------|| Repeat Start & End
----5~~~-- Vibrato                    ||*----*||
----------                            ||*----*||
----------                            ||------||


comments
print report bad tab
I want to post or [tab]
guest
You may want to rate the tab now too:
select rating
Please do not post tabs as comments. Select "correction" instead!