Oops, an error
Loading. Please wait.

Devils Child Tab

version 2
version 2

Whole song

Interactive

7,360 views 9 this week
1 commentread comment
1 2 3 4 5
x 5
add to favorites
launch autoscroll
font size
0
reset
how to read this tab
guitar tuner
Autoscroll
slow
fast
+/-
esc
set tempo
stop
Help us to improve Ultimate-Guitar.com Take our survey!
×
Author
Difficulty
intermediate
Tuning:Std

Devil's Child  [Intro Riff]

e|----------------------------------------(3)----|
B|---------------3------------------------(0)----|
G|-2--2----5-----2-----2--2----5----------(0)----|
D|-2--2----5--5--0-----2--2----5--5-------(0)----|
A|-0--0----3--5--0-----0--0----3--5-------(2)----|
E|------------3-------------------3-------(3)----|

As you enter the song the final chord in the intro can be played as a traditional G
you can completely remove your hand from the neck as Glenn often does (shown in parenthesis).

  [Verse]
         Hypnotize me                   Light
e|-------------------------------------------------------------------|
B|--------------------------3----------------------3-----------------|
G|-2-2-2--------------5-----2--2--5-------2--5-----2--2--5-----------|
D|-2-2-2--------------5--5--0--2--5--5----2--5--5--0--2--5--5--------|
A|-0-0-0--------------3--5--0--0--3--5----0--3--5--0--0--3--5--------|
E|-----------------------3-----------3----------3-----------3--------|

   Eat                  Feast
e|--------------------------------------------------------|
B|----------3----------------------3----------------------|
G|-2--5-----2--2--5-------2--5-----2--2--5----------------|
D|-2--5--5--0--2--5--5----2--5--5--0--2--5--5-5-5-5-5-5---|
A|-0--3--5--0--0--3--5----0--3--5--0--0--3--5-5-5-5-5-5---|
E|-------3-----------3----------3-----------3-3-3-3-3-3---|
                                              x x x x

Bridge  Both Glenn and KK paly the same except the final accent

OH no

Glenn
e|--------------------------------------------------------------|
B|-------------------3--2--3--5-----------------13-13-----------|
G|-------------------2--2--2--4-----------------12-12--12-12----|
D|-2--2-5--5---2--5--0--2--0--2----2--5--5--2---10-10--12-12----|
A|-2--2-5--5---2--5--0-----0--2----2--5--5--2---10-10--10-10----|
E|-0--0-3--3---0--3-----------0----0--3--3--0-------------------|
      x x  x

KK
e|---------------------------------------------------------|
B|-------------------3--2--3--5----------------------------|
G|-------------------2--2--2--4-----------------5-5--------|
D|-2--2-5--5---2--5--0--2--0--2----2--5--5--2---5-5--5-5---|
A|-2--2-5--5---2--5--0-----0--2----2--5--5--2---3-3--5-5---|
E|-0--0-3--3---0--3-----------0----0--3--3--0--------3-5---|
      x x  x

e|--------------------------------------------------------------|
B|-------------------3--2--3--5---------------------------------|
G|-------------------2--2--2--4-----------------7-7-7-6-6-------|
D|-2--2-5--5---2--5--0--2--0--2----2--5--5--2---7-7-7-6-6-------|
A|-2--2-5--5---2--5--0-----0--2----2--5--5--2---5-5-5-4-4-------|
E|-0--0-3--3---0--3-----------0----0--3--3--0-------------------|
                                                  Slide down to A

 Chorus

I Believe
   A A A                 E  G  D
e|--------------------------3--2-------|
B|-----------------------5--0--3-------|
G|-2-2-2-----------------4--0--2-------|
D|-2-2-2-------4---5-4---2--0--0-------|
A|-0-0-0---3-5---5-------2--2--0-------|
E|-----------------------0--3----------|


Glenn plays a rhythm under KKs solo the exact same pattern
as the verse but instead of the A chord as the root he moves up to B
so its B D A E B D A E   then they change key during the solo to F#
Then its F# A E B F# A E B

Verse is in A C G D A C G

The final interlude after the solo you end on the B from the Rhythm and slide to the C#
then A  and back to B then C#    All bar chords
   C# B  A  B
e|--------------------|
B|--------------------|
G|-6--4--2--4---------|
D|-6--4--2--4---------|
A|-4--2--0--2---------|
E|-4--2--0--2---------|

Ending again on the B and sliding back to the A as the final verse begins.

I can play and tab out the solo but it isn't that hard for the advanced players  Just
KK on the Live in Memphis 82 Vengance tour-- there is great footage of him playing that
 This is how i ususally figure out most of their songs as I am ususally up at the stage 
a concert.
Have fun with this


************************************

| /   slide up
| \   slide down
| h   hammer-on
| p   pull-off
| ~   vibrato
| +   harmonic
| x   Mute note
| b   Bend
| pb  Pre-bend
| br  Bend release
| pbr Pre-bend release
| brb Bend release bend

************************************
Suggest correction
comments
print report bad tab
1 comment total.
0 reply
florence007 70 Aug 29, 2014 07:35 AM

Pretty good! I'm not entirely certain that the final bridge/interlude is correct, but other wise it's solid :). Thank's for tabbing it!

guest
You may want to rate the tab now too:
select rating
Wanna post a correction for this tab? Suggest correction