Oops, an error
Loading. Please wait.

Diamonds And Rust Tab

version 3
version 3

Whole song

Interactive

4,663 views 3 this week
no commentswrite comment
1 2 3 4 5
accurate
x 4
add to favorites
launch autoscroll
font size
0
reset
how to read this tab
guitar tuner
Tab Pro tools
  • play this tab
  • loop segment
  • change instrument
  • show fretboard
  • metronome
×
Best way to learn
"Diamonds And Rust"
Autoscroll
slow
fast
+/-
esc
set tempo
stop
Contributor
Diamonds & Rust (Joan Baez) as performerd by Judas Priest (Sin After Sin, 1977)

Intro:
E |-----------------------------------------------------------------|
H |-----------------------------------------------------------------|
G |-----------------------------------------------------------------|
D |-9-9-9-9-9-9-9-9-9-9-9-9-9-9-9-9-4-4-4-4-4-4-4-4-4-4-4-4-4-4-4-4-|
A |-7-7-7-7-7-7-7-7-7-7-7-7-7-7-7-7-2-2-2-2-2-2-2-2-2-2-2-2-2-2-2-2-|
E |-0-0-0-0-0-0-0-0-0-0-0-0-0-0-0-0---------------------------------|

E |-----------------------------------------------------------------|
H |-----------------------------------------------------------------|
G |-----------------------------------------------------------------|
D |-9-9-9-9-9-9-9-9-9-9-9-9-9-9-9-9-4-4-4-4-4-4-4-4-4-4-4-4-4-4-4-4-|
A |-7-7-7-7-7-7-7-7-7-7-7-7-7-7-7-7-2-2-2-2-2-2-2-2-2-2-2-2-2-2-2-2-|
E |-0-0-0-0-0-0-0-0-0-0-0-0-0-0-0-0---------------------------------|


I'll be damned...

E |--------------------------------------------------|
H |-------------------------------7----------------8-|
G |-------------------------------7----------------7-|
D |-9---5-------7---9-9-9-9-9-9-9-7--9-9-9-9-9-9-9-7-|
A |-7---3---5---5---7-7-7-7-7-7-7----7-7-7-7-7-7-7---|
E |-0-------3-------0-0-0-0-0-0-0----0-0-0-0-0-0-0---|

So here I sit...
E |--------------------------------------------------|
H |-------------------------------7----------------8-|
G |-------------------------------7----------------7-|
D |-9---5-------7---9-9-9-9-9-9-9-7--9-9-9-9-9-9-9-7-|
A |-7---3---5---5---7-7-7-7-7-7-7----7-7-7-7-7-7-7---|
E |-0-------3-------0-0-0-0-0-0-0----0-0-0-0-0-0-0---|

Chorus (we both know...):
E |-----------------------------|----------------------------|
H |-----------------------------|----------------------------|
G |-----------------------------|----------------------------|
D |-5----------7----------9---9-|-5----------7----5-4--9---9-|
A |-3---0-3-5--5----10-9--7---7-|-3---0-3-5--5---0-----7---7-|
E |---------------7-------0---0-|----------------------0---0-|


Part C (Now I see you standing...)
E |------------------------------------------------------|
H |------------------------------------------------------|
G |------------------------------------------------------|
D |-------------5--------4-4-4-4-4-4-4-4-4-4-4-4-4-4-4-4-| ->
A |-9--7--9--7--3--5--3--2-2-2-2-2-2-2-2-2-2-2-2-2-2-2-2-| ->
E |-7--5--7--5-----3--1----------------------------------|

E |---------------------------------|
H |---------------------------------|
G |---------------------------------|
D |-5-5-5-5-5-5-5-5-7-7-7-7-7-7-7-7-|
A |-3-3-3-3-3-3-3-3-5-5-5-5-5-5-5-5-|
E |---------------------------------|

E |-----------------------------------------------------------------|
H |-----------------------------------------------------------------|
G |-----------------------------------------------------------------|
D |-9-9-9-9-9-9-9-9-9-9-9-9-9-9-9-9-4-4-4-4-4-4-4-4-4-4-4-4-4-4-4-4-|
A |-7-7-7-7-7-7-7-7-7-7-7-7-7-7-7-7-2-2-2-2-2-2-2-2-2-2-2-2-2-2-2-2-|
E |-0-0-0-0-0-0-0-0-0-0-0-0-0-0-0-0---------------------------------|

E |-----------------------------------------------------------------|
H |-----------------------------------------------------------------|
G |-----------------------------------------------------------------|
D |-9-9-9-9-9-9-9-9-9-9-9-9-9-9-9-9-4-4-4-4-4-4-4-4-4-4-4-4-4-4-4-4-|
A |-7-7-7-7-7-7-7-7-7-7-7-7-7-7-7-7-2-2-2-2-2-2-2-2-2-2-2-2-2-2-2-2-|
E |-0-0-0-0-0-0-0-0-0-0-0-0-0-0-0-0---------------------------------|


Now you're telling me..
E |--------------------------------------------------|
H |-------------------------------8----------------8-|
G |-------------------------------7----------------7-|
D |-9---5-------7---9-9-9-9-9-9-9-7--9-9-9-9-9-9-9-7-|
A |-7---3---5---5---7-7-7-7-7-7-7----7-7-7-7-7-7-7---|
E |-0-------3-------0-0-0-0-0-0-0----0-0-0-0-0-0-0---|

'Cos I need some of that vagueness...
E |--------------------------------------------------|
H |-------------------------------8----------------8-|
G |-------------------------------7----------------7-|
D |-9---5-------7---9-9-9-9-9-9-9-7--9-9-9-9-9-9-9-7-|
A |-7---3---5---5---7-7-7-7-7-7-7----7-7-7-7-7-7-7---|
E |-0-------3-------0-0-0-0-0-0-0----0-0-0-0-0-0-0---|


And the just chorus 'til the end.
E |-----------------------------|----------------------------|
H |-----------------------------|----------------------------|
G |-----------------------------|----------------------------|
D |-5----------7----------9---9-|-5----------7----5-4--9---9-|
A |-3---0-3-5--5----10-9--7---7-|-3---0-3-5--5---0-----7---7-|
E |---------------7-------0---0-|----------------------0---0-|
comments
print report bad tab
I want to post or [tab]
guest
You may want to rate the tab now too:
select rating
Please do not post tabs as comments. Select "correction" instead!