Oops, an error
Loading. Please wait.

Diamonds And Rust Tab

version 4
version 4

Whole song

Interactive

5,097 views 3 this week
no commentswrite comment
1 2 3 4 5
please rate
add to favorites
launch autoscroll
font size
0
reset
how to read this tab
guitar tuner
Tab Pro tools
  • play this tab
  • loop segment
  • change instrument
  • show fretboard
  • metronome
×
Best way to learn
"Diamonds And Rust"
Autoscroll
slow
fast
+/-
esc
set tempo
stop
Contributor
Difficulty
Tabbers playing skills
intermediate
advanced ++
-------------------------------------------------------------------------------
                             DIAMONDS AND RUST - Judas Priest
-------------------------------------------------------------------------------


Tabbed by: Isaias Garcia

Album: Unleashed In The East (live)

Tuning: Standard


Guitar - K.K. Downing

     m.11 - Pre-verse                                                                  
                     PM                                                    
     H.           E  E     E  E  E  E  E  E  E  E     H.           E  S S  
E||---------------------|--------------------------|----------------------|
B||---------------------|--8--7--------8--7--------|----------------------|
G||---------------------|--9--7--------9--7--------|----------------------|
D||--9------------L-----|--------------------9--7--|----------------------|
A||--7------------L-----|--------------------7--5--|--9------------L--9-9-|
E||--0------------L--0--|-----------0--------------|--7------------L--7-7-|


                                        PM                              
  H.           E  E     H.           E  E     E  E  E  E  E  E  E  S S  
---------------------|---------------------|---------------------------|
---------------------|---------------------|--8--7--------8--7---------|
---------------------|---------------------|--9--7--------9--7---------|
---------------------|--9------------L-----|---------------------------|
--9------------L-----|--7------------L-----|-----------------------9-9-|
--7------------L--0--|--0------------L--0--|-----------0-----------7-7-|


                                                 Verse 1                   
  Q    H        E  S S    H.           E  E      Q.     S S H         
-----------------------|---------------------||----------------------|
-------0--------L------|---------------------||----------------------|
-----------------------|---------------------||----------------------|
-----------------------|--9------------L-----||--9------9-9-9--------|
--9----9--------L--9-9-|--9------------L-----||--7------7-7-7--------|
--7----------------7-7-|--7------------L--0--||----------------------|


  H        Q    Q       W                   H        Q    Q     
---------------------|-------------------|---------------------|
---------------------|-------------------|---------------------|
---------------------|-------------------|---------------------|
--9--------9----9----|--5----------------|--L--------5----5----|
--7--------7----7----|--3----------------|--L--------3----3----|
---------------------|-------------------|---------------------|


  Q.     S S H           H        Q    Q       H        H         
----------------------|---------------------|--------------------|
----------------------|---------------------|--------------------|
----------------------|---------------------|--------------------|
----------------------|---------------------|--7--------7--------|
--5------5-5-5--------|--L--------5----5----|--5--------5--------|
--3------3-3-3--------|--L--------3----3----|--------------------|


                                      |--3--|                        
  Q    Q    Q    Q       H.           E  E  E     H.           Q     
----------------------|------------------------|--------------------|
----------------------|------------------------|--------------------|
----------------------|------------------------|--------------------|
--L----7----7----7----|---------------x--x--x--|--------------------|
--L----5----5----5----|--7------------x--x--x--|--7------------7----|
----------------------|--0---------------------|--0------------0----|


  Q.     S S H           Q    Q    Q    Q       Q.     S S H         
----------------------|----------------------|----------------------|
----------------------|----------------------|----------------------|
----------------------|----------------------|----------------------|
--9------9-9-9--------|--L----9----9----9----|--5------5-5-5--------|
--7------7-7-7--------|--L----7----7----7----|--3------3-3-3--------|
----------------------|----------------------|----------------------|


  H        Q    Q       Q.     S S H           H        Q    Q     
---------------------|----------------------|---------------------|
---------------------|----------------------|---------------------|
---------------------|----------------------|---------------------|
--L--------5----5----|----------------------|---------------------|
--L--------3----3----|--5------5-5-5--------|--L--------5----5----|
---------------------|--3------3-3-3--------|--L--------3----3----|


  H        H           H        Q    Q       H.           Q     
--------------------|---------------------|--------------------|
--------------------|---------------------|--9-----------------|
--------------------|---------------------|--9------------7----|
--7--------7--------|--L--------7----7----|--9------------7----|
--5--------5--------|--L--------5----5----|--7-----------------|
--------------------|---------------------|--0-----------------|


                       Chorus 1                                         
                                   PM                             
  W                    H        E  E  E  E     H.           Q     
-------------------||-----------------------|--------------------|
-------------------||-----------------------|--------------------|
--9----------------||-----------------------|--------------------|
--9----------------||--5--------L-----------|--7------------5----|
--7----------------||--3--------L--0--3--5--|--5------------L----|
--0----------------||-----------------------|--------------------|


                                                         PM         
  H.           E  S S    W                   H        E  E  E   E   
----------------------|-------------------|------------------------|
----------------------|-------------------|------------------------|
----------------------|-------------------|------------------------|
--9------------L--9-9-|--9----------------|--5--------L------------|
--7------------L--7-7-|--7----------------|--3--------L--0--3s--5--|
--0-------------------|-------------------|------------------------|


  H.           Q       E  S S Q    E  S S E  E     W                 
--------------------|---------------------------|-------------------||
--------------------|---------------------------|-------------------||
---------------0----|---------------------------|-------------------||
--7-----------------|--9--9-9-9----9--9-9-9--9--|--9----------------||
--5------------L----|--7--7-7-7----7--7-7-7--7--|--7----------------||
--------------------|---------------------------|-------------------||


  Bridge                                                             
  Q.     S S H           W                   H        H         
----------------------|-------------------|--------------------|
----------------------|-------------------|--------------------|
----------------------|-------------------|--------------------|
--9------9-9-9--------|--7----------------|--9--------9--------|
--9------9-9-9--------|--7----------------|--9--------9--------|
--7------7-7-7--------|--5----------------|--7--------7--------|


  H        H           H        Q.     S S    S S S S Q    S S S S S E.   
--------------------|----------------------|-----------------------------|
--------------------|----------------------|-----------------------------|
--------------------|----------------------|----4-----4--------4-4-L-----|
--7--------7--------|--5--------5------5-5-|------5------------------5---|
--7--------7--------|--3--------3------3-3-|--------5--------5-----------|
--5--------5--------|----------------------|--3------------3-------------|


  H        S E  S Q       H        Q    E  E     H        H         
-----------------------|----------------------|--------------------|
-----------------------|----------------------|--------------------|
--2----------2--2-2----|----------------------|--------------------|
--3----------3--3-3----|--4--------4----4--4--|--5--------7--------|
--3--------------------|--2--------2----2--2--|--3--------5--------|
--1--------1-----------|----------------------|--------------------|


                  PM             PM                                     
  H.           E  E     E  E  E  E  E  E  E  E     H.           E  S S  
---------------------|-----------------------0--|----------------------|
---------------------|--8--7--------8--7--------|----------------------|
---------------------|--9--7--------9--7--------|--9------------9--9-9-|
--9------------L-----|--------------------------|--9------------9--9-9-|
--7------------L-----|--------------------------|--9------------9--9-9-|
------------------0--|-----------0--------------|--7------------7--7-7-|


                                        PM             PM              
  H.           E  E     H.           E  E     E  E  E  E  E  E  E  E   
---------------------|---------------------|-----------------------0--|
---------------------|---------------------|-----7--------8--7--------|
--8------------------|---------------------|--7--7--------9--7--------|
--9------------------|------------------9--|--------------------------|
--9------------7-----|---------------------|--------------------------|
--7------------5--0--|--0------------L-----|-----------0--------------|


                                               Verse 2                   
  H.           E  S S    H.           Q        Q.     S S H         
----------------------|--------------------||----------------------|
----------------------|--------------------||----------------------|
--9------------9------|--8-----------------||----------------------|
--9------------9------|--9------------7----||--9------9-9-9--------|
--9------------9--9-9-|--9------------7----||--7------7-7-7--------|
--7------------7--7-7-|--7-----------------||--0------0-0-0--------|


  H        Q    Q       Q.     S S H           H        Q    Q     
---------------------|----------------------|---------------------|
---------------------|----------------------|---------------------|
---------------------|----------------------|---------------------|
--L--------9----9----|--5------5-5-5--------|--L--------5----5----|
--L--------7----7----|--3------3-3-3--------|--L--------3----3----|
--L--------0----0----|----------------------|---------------------|


  Q.     S S H           H        Q    Q       Q.     S S H         
----------------------|---------------------|----------------------|
----------------------|---------------------|----------------------|
----------------------|-----------0---------|-------------7--------|
----------------------|---------------------|--7------7-7-7--------|
--5------5-5-5--------|--L--------5----5----|--5------5-5-5--------|
--3------3-3-3--------|--L--------3----3----|----------------------|


  E  E  Q    Q    Q        H.           Q        W                  
------------------------|--------------------|---------------------|
------------------------|--------------------|--(9)----------------|
--L----------7----------|--------------------|---9-----------------|
--L--7--L---------7\----|--9------------9----|---------------------|
--L---------------5\----|--7-----------------|---------------------|
------------------------|--------------------|---------------------|


  Q.     S S H           H        Q    Q       Q.     S S H         
----------------------|---------------------|----------------------|
----------------------|---------------------|----------------------|
----------------------|---------------------|----------------------|
--9------9-9-9--------|--L--------9----9----|--5------5-5-5--------|
--7------7-7-7--------|--L--------7----7----|--3------3-3-3--------|
--0------0-0-0--------|--L--------0----0----|----------------------|


  H        Q    Q       Q.     S S H           H        Q    Q     
---------------------|----------------------|---------------------|
---------------------|----------------------|---------------------|
---------------------|----------------------|---------------------|
--5--------5----5----|----------------------|---------------------|
--3--------3----3----|--5------5-5-5--------|--L--------5----5----|
---------------------|--3------3-3-3--------|--L--------3----3----|


  Q.     S S H           H        Q    Q       H.           E  S S  
----------------------|---------------------|----------------------|
----------------------|---------------------|----------------------|
----------------------|---------------------|----------------------|
--7------7-7-7--------|--L--------7----7----|--9------------9--9-9-|
--5------5-5-5--------|--L--------5----5----|--7------------7--7-7-|
----------------------|---------------------|--0------------0--0-0-|


                       Chorus 2                                            
                                   PM                       PM       
  W                    H        E  E  E   E     H        E  E  Q     
-------------------||------------------------|----------------------|
--9----------------||------------------------|----------------------|
--9----------------||------------------------|----------------------|
--9----------------||--5--------L------------|--7--------L-----7----|
--7----------------||--3--------L--0--3s--5--|--5--------L--0--5----|
--0----------------||------------------------|----------------------|


                                                          PM        
  H.           E  S S    H.           Q       H        E  E  E  E   
----------------------|--------------------|-----------------------|
----------------------|--9-----------------|-----------------------|
----------------------|--9-----------------|-----------------------|
--9------------9--9-9-|--9------------9----|--5--------L-----------|
--7------------7--7-7-|--7------------7----|--3--------L--0--3--5--|
----------------------|--------------------|-----------------------|


              PM                                                  
  H        E  E  Q       H.           E  S S    W                 
----------------------|----------------------|-------------------|
----------------------|----------------------|--9----------------|
-----------------0----|----------------------|--9----------------|
--7--------L----------|--9------------9--9-9-|--9----------------|
--5--------L--0-------|--7------------7--7-7-|--7----------------|
----------------------|----------------------|-------------------|


              PM                      PM                              
  H        E  E  E  E     H        E  E  Q       H.           E  S S  
-----------------------|----------------------|----------------------|
-----------------------|----------------------|----------------------|
-----------------------|-----------------0----|----------------------|
--5--------L-----------|--7--------L----------|--9------------9--9-9-|
--3--------L--0--3--5--|--5--------L--0-------|--7------------7--7-7-|
-----------------------|----------------------|----------------------|


                                  PM                      PM       
  W                   H        E  E  E  E     H        E  E  Q     
-------------------|-----------------------|----------------------|
--9----------------|-----------------------|----------------------|
--9----------------|-----------------------|-----------------0----|
--9----------------|--5--------L-----------|--7--------L----------|
--7----------------|--3--------L--0--3--5--|--5--------L--0-------|
-------------------|-----------------------|----------------------|


                                                          PM         
  H.           E  S S    H        H           H        E  E  E   E   
----------------------|--------------------|------------------------|
----------------------|--------------------|------------------------|
----------------------|-----------9--------|------------------------|
--9------------9--9-9-|--9--------9--------|--5--------L------------|
--7------------7--7-7-|--7--------7--------|--3--------L--0--3s--5--|
----------------------|--------------------|------------------------|


              PM                                                 
  H        E  E  Q       H.           E.  S    W                 
----------------------|---------------------|-------------------|
----------------------|---------------------|-------------------|
-----------------0----|---------------------|-------------------|
--7--------L----------|--9------------L---9-|--L----------------|
--5--------L--0-------|--7------------L---7-|--L----------------|
----------------------|---------------------|-------------------|


              PM                       PM          TP                
  H        E  E  E   E     H        E  E  E  E     W                 
------------------------|-----------------------|-------------------|
------------------------|-----------------------|-------------------|
------------------------|-----------------------|--9----------------|
--5--------L------------|--7--------L-----5--4--|--9----------------|
--3--------L--0--3s--5--|--5--------L--0--------|--7----------------|
------------------------|-----------------------|-------------------|


                                  
  W                   Q     Q    H            
-------------------|---------------------------||
-------------------|---------------------------||
-------------------|---------------------------||
--9----------------|--9\-----------------------||
--7----------------|--7\-----------------------||
-------------------|---------------------------||





Guitar - Glenn Tipton

     Intro                                     
     W                   W                 
E||-------------------|-------------------|
B||--0----------------|--L----------------|
G||-------------------|-------------------|
D||--9----------------|--L----------------|
A||--7----------------|--L----------------|
E||--0----------------|--L----------------|


  PM PM PM PM PM PM PM PM PM PM PM PM    PM PM PM PM PM PM PM PM PM PM PM PM  
  E  E  E  S  S  S  S  S  S  E  S  S     E  S  S  E  S  S  E  S  S  E  S  S   
--------------------------------------|--------------------------------------|
--------------------------------------|--------------------------------------|
--------------------------------------|--------------------------------------|
--------------------------------------|--------------------------------------|
--------------------------------------|--------------------------------------|
--0--0--0--0--0--0--0--0--0--0--0--0--|--0--0--0--0--0--0--0--0--0--0--0--0--|


        echo repeats
  >                            >                          
  Q     Q      Q      Q        Q     Q      Q      Q      
----------------------------|----------------------------|
----------------------------|----------------------------|
----------------------------|----------------------------|
----------------------------|----------------------------|
--9----(9)----(9)----(9)----|--9----(9)----(9)----(9)----|
--7----(7)----(7)----(7)----|--7----(7)----(7)----(7)----|


              PM PM PM PM    PM PM PM PM PM PM PM PM PM PM PM PM PM PM  
  H        E  E  E  S  S     S  S  S  S  E  S  S  S  S  S  S  E  S  S   
--------------------------|--------------------------------------------|
--0-----------------------|--------------------------------------------|
--------------------------|--------------------------------------------|
--9-----------------------|--------------------------------------------|
--7--------L--------------|--------------------------------------------|
--0--------L--0--0--0--0--|--0--0--0--0--0--0--0--0--0--0--0--0--0--0--|


        echo repeats                                                           
  >                            >           >               Pre-verse                    
  Q     Q      Q      Q        Q     Q     Q     Q         Q    Q    Q    Q     
----------------------------|--------------------------||-------0----0---------|
----------------------------|--------------------------||--0----0----0---------|
----------------------------|--------------------------||----------------------|
----------------------------|--------------------------||--9-------------------|
--9----(9)----(9)----(9)----|--5----(5)----7----(7)----||--7-------------------|
--7----(7)----(7)----(7)----|--3----(3)----5----(5)----||----------------------|


                        PM                                             
  E  E  E  E  E   E  E  E     Q    H        E  E     W                 
---------------------------|----------------------|-------------------|
--------------8p--7--------|----------------------|-------------------|
--9--7--------9---7--------|----------------------|-------------------|
--9--7--------9p--7--------|----------------------|--9----------------|
--7------------------------|-------9--------L-----|--9----------------|
-----------0------------7--|--7----------------7--|-------------------|


                                              PM                          
  Q    H.              E   E  E  E  E   E  E  E     E  E  E  E  H         
--------------------|----------------------------|-----------------------|
--------------------|--8p--7--------8p--7--------|-----------------------|
-------9------------|--9---7--------9---7--------|-----------------------|
-------9------------|--9p--7--------9p--7--------|-----------9--L--------|
--7-----------------|----------------------------|--9--9--9--------------|
--0-----------------|------------0------------7--|--7--7-----------------|


                           Verse 1                          
                                   PM PM PM PM PM PM  
  E  E  E  E  H            H        E  S  S  E  S  S   
-----------------------||-----------------------------|
-----------------------||-----------------------------|
-----------------------||-----------------------------|
-----------9--L--------||--9--------------------------|
--9--9--9--------------||--7--------------------------|
--7--7-----------------||-----------0--0--0--0--0--0--|


  PM PM PM PM PM PM PM PM PM PM PM PM             PM PM PM PM PM PM  
  E  S  S  E  S  S  E  S  S  E  S  S     H        E  S  S  E  S  S   
--------------------------------------|-----------------------------|
--------------------------------------|-----------------------------|
--------------------------------------|-----------------------------|
--------------------------------------|--5--------------------------|
--------------------------------------|--3--------3--3--3--3--3--3--|
--0--0--0--0--0--0--0--0--0--0--0--0--|-----------------------------|


  PM PM PM PM PM PM PM PM PM PM PM PM             PM PM PM PM PM PM  
  E  S  S  E  S  S  E  S  S  E  S  S     H        E  S  S  E  S  S   
--------------------------------------|-----------------------------|
--------------------------------------|-----------------------------|
--------------------------------------|-----------------------------|
--------------------------------------|-----------------------------|
--3--3--3--3--3--3--3--3--3--3--3--3--|--5--------------------------|
--------------------------------------|--3--------3--3--3--3--3--3--|


  PM PM PM PM PM PM PM PM PM PM PM PM             PM PM PM PM PM PM  
  S  S  S  S  E  S  S  E  S  S  E  E     H        E  S  S  E  S  S   
--------------------------------------|-----------------------------|
--------------------------------------|-----------------------------|
--------------------------------------|-----------------------------|
--------------------------------------|--7--------------------------|
--------------------------------------|--5--------5--5--5--5--5--5--|
--3--3--3--3--3--3--3--3--3--3--3--3--|-----------------------------|


  PM PM PM PM PM PM PM PM PM PM PM PM                        
  E  S  S  E  S  S  E  S  S  E  S  S     Q    H        Q     
--------------------------------------|---------------------|
--------------------------------------|-------0-------------|
--------------------------------------|---------------------|
--------------------------------------|--9-------------7----|
--5--5--5--5--5--5--5--5--5--5--5--5--|--7-------------7----|
--------------------------------------|--0------------------|


                                 PM PM PM PM PM PM  
  H.            Q       H        E  S  S  E  S  S   
---------------------|-----------------------------|
---------------12----|-----------------------------|
---------------12----|-----------------------------|
--9------------------|--9--------------------------|
--7------------------|--7--------------------------|
--0------------------|-----------0--0--0--0--0--0--|


  PM PM PM PM PM PM PM PM PM PM PM               PM PM PM PM PM PM  
  E  S  S  E  S  S  E  S  S  E  S  S    H        E  S  S  E  S  S   
-------------------------------------|-----------------------------|
-------------------------------------|-----------------------------|
-------------------------------------|-----------------------------|
-------------------------------------|--5--------------------------|
-------------------------------------|--3--------3--3--3--3--3--3--|
--0--0--0--0--0--0--0--0--0--0--0--0-|-----------------------------|


  PM PM PM PM PM PM PM PM PM PM PM PM PM             PM PM PM PM PM PM  
  E  S  S  S  S  S  S  E  S  S  E  S  S     H        E  S  S  E  S  S   
-----------------------------------------|-----------------------------|
-----------------------------------------|-----------------------------|
-----------------------------------------|-----------------------------|
-----------------------------------------|-----------------------------|
--3--3--3--3--3--3--3--3--3--3--3--3--3--|--5--------------------------|
-----------------------------------------|--3--------3--3--3--3--3--3--|


  PM PM PM PM PM PM PM PM PM PM PM PM             PM PM PM PM PM PM  
  E  S  S  E  S  S  E  S  S  E  S  S     H        E  S  S  E  S  S   
--------------------------------------|-----------------------------|
--------------------------------------|-----------------------------|
--------------------------------------|-----------------------------|
--------------------------------------|--7--------------------------|
--------------------------------------|--5--------5--5--5--5--5--5--|
--3--3--3--3--3--3--3--3--3--3--3--3--|-----------------------------|


  PM PM PM PM PM PM PM PM PM PM PM PM                                           
  E  S  S  E  S  S  E  S  S  E  S  S     H.           Q       W                 
--------------------------------------|--------------------|-------------------||
--------------------------------------|--------------------|-------------------||
--------------------------------------|---------------7----|-------------------||
--------------------------------------|--9------------7----|--9----------------||
--5--5--5--5--5--5--5--5--5--5--5--5--|--7-----------------|--7----------------||
--------------------------------------|--------------------|-------------------||


  Chorus 1                                                           
  W                   W                   H.           E  S S  
-------------------|-------------------|----------------------|
-------------------|-------------------|------------------9-9-|
--5----------------|-------------------|------------------9-9-|
--5----------------|--7----------------|------------------9-9-|
--3----------------|--5----------------|--7------------L--7-7-|
-------------------|-------------------|--0------------L------|


  W                   W                   W                   W                 
-------------------|-------------------|-------------------|-------------------|
--9----------------|-------------------|-------------------|--9----------------|
--9----------------|--5----------------|-------------------|--9----------------|
--9----------------|--5----------------|--7----------------|--9----------------|
--7----------------|--3----------------|--5----------------|--7----------------|
-------------------|-------------------|-------------------|-------------------|


                       Bridge                                              
  W                    W                   H        S  S S S S S S S  
-------------------||-------------------|----------------------------|
--9----------------||-------------------|----------------------------|
--9----------------||-------------------|----------------------------|
--9----------------||-------------------|----------------5-5-7-7-5---|
--7----------------||-------------------|-----------5h-7-----------7-|
-------------------||-------------------|----------------------------|


  W                     Q      E.     S     E   S  S   S  E.    
--------------------|------------------------------------------|
--------------------|--15b-----Lpb---15pbr--L--12--------------|
--------------------|--------------------------12--------------|
--------------------|-----------------------------13h-14-10\---|
--7b----------------|------------------------------------------|
--------------------|------------------------------------------|


  W                   S   E  T T S S  S S E    S  S  Q       
-------------------|-----------------------------15---------|
-------------------|--------------------3----/15----18br----|
-------------------|---------0-0-0-3s-4---0-----------------|
-------------------|----------------------0-----------------|
-------------------|----0g2---------------------------------|
--8----------------|----------------------------------------|


                       |---3---|                                             
   H         E.    S   E   E   E      Q      E.    S     S  E   S   E    E   
--------------------------14--15--|--17b----17b---17pbr--L-14--10h-12-------|
--17--------17~----L/-17----------|----------------------------10h-12-------|
----------------------------------|-----------------------------------------|
----------------------------------|------------------------------------/16--|
----------------------------------|-----------------------------------------|
----------------------------------|-----------------------------------------|


                                         PM                             
  Q.     E   H           H.           E  E     E  E  E  E  E  E  E  E   
----------------------|---------------------|-----------------------0--|
----------------------|---------------------|--8--7--------8--7--------|
----------------------|---------------------|--9--7--------9--7--------|
----------------------|--9------------L-----|--9--7--------9--7--------|
--7------7s--9--------|--7------------L-----|--------------------------|
----------------------|--0------------L--0--|-----------0--------------|


  Q    Q    Q.     E     H.           Q       Q    Q    Q    Q     
-------0----0---------|--------------------|----------------------|
-------0----0---------|--------------------|-------0----0---------|
----------------------|--------------------|----------------------|
----------------------|---------------7----|--9-------------------|
--9-------------------|--9------------7----|--7-------------------|
--7----------------7--|--7-----------------|--0-------------------|


                                              PM                      
  E  E  E  E  E  E  E  E     Q    Q    Q.     E     W                 
--------------------------|----------------------|-------------------||
--8--7--------8--7--------|-------0----L---------|--0----------------||
--9--7--------9--7--------|----------------------|-------------------||
--9--7--------9--7--------|----------------------|-------------------||
--------------------------|--9-------------------|--9----------------||
-----------0-----------7--|--7----------------7--|--7----------------||


  Verse 2                                                         
             |-----3-----|        |--3--|                    
  H          Q     Q     Q        Q     H         H          
------------------------------|-----------------------------|
------------------------------|--------12--------15b--------|
------------------11----12----|--14-------------------------|
--9--------/14----------------|-----------------------------|
--7---------------------------|-----------------------------|
------------------------------|-----------------------------|


             |------3------|                           
   H         Q       Q     Q        W                  
--------------------------------|---------------------|
---L--------15br-----L----12----|--15b----------------|
--------------------------------|---------------------|
--------------------------------|---------------------|
--------------------------------|---------------------|
--------------------------------|---------------------|


              |-------3------|        |--3--|                   
   H          Q        Q     Q        Q     H         H         
----------------------------------|----------------------------|
--15b--------15pbr-----L----13----|--15----12------------------|
----------------------------------|------------------12--------|
----------------------------------|----------------------------|
----------------------------------|----------------------------|
----------------------------------|----------------------------|


               |-------3------|        |--3--|                       
   Q     Q     Q        Q     Q        Q     H          Q     Q      
-----------------------------------|--------------------------------|
--------------12pbr-----L----10----|--12----------------------------|
---L\------------------------------|--------12~--------11-----------|
-----------------------------------|-------------------------12\----|
-----------------------------------|--------------------------------|
-----------------------------------|--------------------------------|


                                                            |-----3-----|     
  Q    H        E  S S    Q    Q    Q    Q       Q    Q     Q     Q     Q     
-----------------------|----------------------|------------------------------|
-------------------9-9-|--9-------------------|--9---------------19----20----|
-------9--------L--9-9-|--9---------9---------|--9---------21----------------|
--9----9--------L------|-------9---------9----|--9---------------------------|
--7--------------------|----------------------|--7---------------------------|
-----------------------|----------------------|------------------------------|


                                               |-------3------|     
   E   E   E   E    Q     Q         H          Q        Q     Q     
------19---L--22b---L----22b----|--22b--------22pbr-----L----19----|
--22----------------------------|----------------------------------|
--------------------------------|----------------------------------|
--------------------------------|----------------------------------|
--------------------------------|----------------------------------|
--------------------------------|----------------------------------|


              |------3------|                    |-------3------|     
   H          Q      Q      Q         H          Q        Q     Q     
--22b--------22b----22b----22b----|--22b--------22pbr-----L----20----|
----------------------------------|----------------------------------|
----------------------------------|----------------------------------|
----------------------------------|----------------------------------|
----------------------------------|----------------------------------|
----------------------------------|----------------------------------|


                                         |------3------|     
   E   E   Q     H             H         Q       Q     Q     
--22--19---L---------------|------------19br-----L----17----|
----------------20~--------|---L----------------------------|
---------------------------|--------------------------------|
---------------------------|--------------------------------|
---------------------------|--------------------------------|
---------------------------|--------------------------------|


   E   E   Q     H            W                   W                 
--19-----------------------|-------------------|-------------------||
------20---L----19~--------|--0----------------|--0----------------||
---------------------------|--9----------------|--9----------------||
---------------------------|--9----------------|--9----------------||
---------------------------|--7----------------|-------------------||
---------------------------|--0----------------|-------------------||


  Chorus 2                                                             
  W                   W                   H.           E   E     
-------------------|-------------------|------------------------|
-------------------|-------------------|------------------------|
--5----------------|--7----------------|--9---------------14br--|
--5----------------|--7----------------|--9---------------------|
--3----------------|--5----------------|--7---------------------|
-------------------|-------------------|------------------------|


   Q     S   S  E    E   E   S  S  E      W                   W                 
---------------------------------------|-------------------|-------------------|
---------------------------------------|-------------------|-------------------|
---L----14p-12-14b---L--12--14-12------|--5----------------|--7----------------|
----------------------------------14\--|--5----------------|--7----------------|
---------------------------------------|--3----------------|--5----------------|
---------------------------------------|-------------------|-------------------|


                       |------3-----|     |-----3-----|                         
  W                    Q      Q     Q     Q     Q     Q       W                 
-------------------|---------------------------------------|-------------------|
-------------------|---------------------------------------|-------------------|
--9----------------|--12b----------------------------------|--5----------------|
--9----------------|---------14----12----------------------|--5----------------|
--7----------------|---------------------14----13----12----|--3----------------|
-------------------|---------------------------------------|-------------------|


                             PM PM PM PM PM PM PM PM  
  W                   Q.     S  S  E  S  S  E  S  S   
-------------------|---------------------------------|
-------------------|---------------------------------|
--7----------------|---------------------------------|
--7----------------|---------------------------------|
--5----------------|---------------------------------|
-------------------|--0------0--0--0--0--0--0--0--0--|


  PM PM PM PM PM PM PM PM PM                                          
  E  E  E  S  S  E  E  E  E     W                   W                 
-----------------------------|-------------------|-------------------|
-----------------------------|-------------------|-------------------|
-----------------------------|--5----------------|--7----------------|
-----------------------------|--5----------------|--7----------------|
-----------------------------|--3----------------|--5----------------|
--0--0--0--0--0--0--0--0--0--|-------------------|-------------------|


         PM PM PM PM PM PM PM PM    PM PM PM PM PM PM PM PM PM PM PM PM  
  Q.     S  S  E  S  S  E  S  S     S  S  S  S  E  S  S  E  S  S  E  E   
---------------------------------|--------------------------------------|
---------------------------------|--------------------------------------|
---------------------------------|--------------------------------------|
---------------------------------|--------------------------------------|
---------------------------------|--------------------------------------|
--0------0--0--0--0--0--0--0--0--|--0--0--0--0--0--0--0--0--0--0--0--0--|


                                                   PM PM PM PM PM PM  
  W                   W                   H        E  S  S  E  S  S   
-------------------|-------------------|-----------------------------|
-------------------|-------------------|-----------------------------|
--5----------------|--7----------------|-----------------------------|
--5----------------|--7----------------|--9--------------------------|
--3----------------|--5----------------|--7--------------------------|
-------------------|-------------------|--0--------0--0--0--0--0--0--|


  PM PM PM PM PM PM PM PM PM PM PM PM                                          
  S  S  S  S  E  S  S  E  S  S  E  E     W                   W                 
--------------------------------------|-------------------|-------------------|
--------------------------------------|-------------------|-------------------|
--------------------------------------|--5----------------|--7----------------|
--------------------------------------|--5----------------|--7----------------|
--------------------------------------|--3----------------|--5----------------|
--0--0--0--0--0--0--0--0--0--0--0--0--|-------------------|-------------------|


  H.           Q       W                   Q     Q    H          
--------------------|-------------------|----------------------||
---------------9----|--L----------------|----------------------||
--9-----------------|-------------------|----------------------||
--9-----------------|-------------------|--9\------------------||
--7-----------------|-------------------|--7\------------------||
--------------------|-------------------|----------------------||



Duration Legend
---------------
W - whole
H - half
Q - quarter
E - 8th
S - 16th
. - note dotted
|-n-|  - n-tuplets


Tablature Legend
----------------
L - tied note
x - dead note
g - grace note
(n) - ghost note
> - accentuded note
h - hammer on
p - pull off
b - bend
br - bendRelease
pb - preBend
pbr - preBendRelease
brb - bendReleaseBend
S - shift slide
s - legato slide
/ -  slide into from below or out of upwards
\ -  slide into from above or out of downwards
~ - vibrato
TP - tremolo picking

comments
We did not receive enough feedback on this tab! Please rate:
print report bad tab
1 2 3 4 5
I want to post or [tab]
guest
You may want to rate the tab now too:
select rating
Please do not post tabs as comments. Select "correction" instead!