Oops, an error
Loading. Please wait.

Dont Go Tab

version 2
version 2

Whole song

Interactive

1,032 views 3 this week
no commentswrite comment
1 2 3 4 5
please rate
add to favorites
launch autoscroll
font size
0
reset
how to read this tab
guitar tuner
Tab Pro tools
  • play this tab
  • loop segment
  • change instrument
  • show fretboard
  • metronome
×
Best way to learn
"Dont Go"
Autoscroll
slow
fast
+/-
esc
set tempo
stop
Contributor
Band:  Judas Priest
Album: Point Of Entry
Song:  Don't Go

Copyright (c)  (CBS) (1981)
Version 1.0 - 07/02/05




.  - palm mute           /  - slide up to
\  - slide down to       ~  - vibrato
h  - hammer on           b  - Bend
p  - pull off            Suffixes for bend
t  - tap                 f  - full bend    h - half bend
ph - pinched harmonic    q  - quarter bend t - tap bend
*  - see comment         ^  - Hold bend    r release bend
x  - Stuccatto           ~  - vibrato bend
,  - slight palm mute    () - ghost note, sustained note
"  - tremolo note        <> - Trill

Tunning E A D G B E

 Intro

E---------------------------------------------|
B--3-----------------(3)----------------------|
G--2-----------------(2)----------------------|
D--4-----------------(4)----------------------|
A--2-----------------(2)----------------------|
E---------------------------------------------|

 Main riff
  [-PM-]  [-PM-]  ~~~ 
E-----------------------|
B-----------------------|
G-----------------------|
D-----------------------|
A--2--2--0--2--2--------|
E--0--0--0--0--0--3-----| Rpt 2 X before vocals enter
 Rpt 4 X before riff A

 Riff A                   ~~
E-------------------------------|
B-------------------------------|
G-----7-7-6--------7-7-6--------|
D-----7-7-7-7------7-7-7--------|
A-0---------0---0---------------|
E------------------------3------|Rpt 2 X

Rpt main riff once then riff A twice
Rpt main riff once then bridge

 Bridge
E-------------------|
B----------3--3--3--|
G----------2--2--2--|
D-5--5--5\-4--4--4--|
A-3--3--3\-2--2--2--|
E-------------------|
Rpt main riff once then bridge again


Build into chorus 1st time only
 [-PM-]
E------------------------------------|
B------------------------------------|
G------------------------------------|
D------------------------------------|
A-2--2--0--2------(2)----------------|
E-0--0--0--0------(0)----------------|

Chorus
                       h
E-3-----------------------3-------------------|
B-3-----3--(3)------------3-----3-------------|
G-0-----2--(2)--2---------0-----2---2---(2)---|
D-0-----0--(0)--2-2-------0-----0---2---(2)---|
A---------------0-0--0-2------------0---(0)---|
E-3-----------------------3-------------------|

E-3-----------------------3-------------------|
B-3-----3--(3)------------3-----3----3--(3)---|
G-0-----2--(2)--2---------0-----2----2--(2)---|
D-0-----0--(0)--2-2-------0-----0----0--(0)---|
A---------------0-0--0-2----------------------|
E-3-----------------------3--------3----------|

Rpt verse and bridge structure

Additional guitar during 2nd verse
 [--------PM------------]
E--------------------------|
B--------------------------|
G--------------------7-7---|
D-9--7-9--9-7-9--7-9-------|
A--------------------------|
E--------------------------|


 Build into chorus 2nd time
E-------------------------------|
B--3-----------------(3)--------|
G--2-----------------(2)--------|
D--4-----------------(4)--------|
A--2-----------------(2)--------|
E-------------------------------|

Backing for solo
  [---PM---]  [----PM---]
E----------------------------|
B----------------------------|
G-2-----2---5--2-----2---5---|
D-2-----2---5--2-----2---5---|
A-0-0-0-0-0-3--0-0-0-0-0-3---|
E----------------------------|

 [--------PM-----------]
E----------------------------|
B----------------------------|
G----------------------------|
D-4-----4------4-----4---2---|
A-4-----4-2-2--4-----4---0---|
E-2-2-2-2-0-0--2-2-2-2-2-----|


End of guitar solo
       ~~ ~~
E-------------|
B-------------|
G-------------|
D-------------|
A-2-----------|
E---0--1--2---|

Rpt chorus 2 X

 Lead at end to accompany chorus
      ~~~~
E---------------------------------------|
B-19b-19---\---20-19-17----19-17-17-----|
G----------------------19---------------|
D---------------------------------------|
A---------------------------------------|
E---------------------------------------|
       ~~~
E-17b-17--\----17b17-17-----------------|
B---------------------------------------|
G---------------------------------------|
D---------------------------------------|
A---------------------------------------|
E---------------------------------------|

Fade on D chord

END
comments
We did not receive enough feedback on this tab! Please rate:
print report bad tab
1 2 3 4 5
I want to post or [tab]
guest
You may want to rate the tab now too:
select rating
Please do not post tabs as comments. Select "correction" instead!