Oops, an error
Loading. Please wait.

Dream Deceiver Tab

10,203 views 33 this week
no commentswrite comment
1 2 3 4 5
please rate
add to favorites
launch autoscroll
font size
0
reset
how to read this tab
guitar tuner
Autoscroll
slow
fast
+/-
esc
set tempo
stop
Help us to improve Ultimate-Guitar.com Take our survey!
×
Author
                            Dreamer Deceiver - Judas Priest
-------------------------------------------------------------------------------
Tabbed by:it'-errr-time
Email:

Tuning: standard

e|-----------0-------------------------------------------------------------------|
B|-------------0-----------------------------------------------------------------|
G|---------0-----0---------------------------------------------------------------|
D|-----2-------------------------------------------------------------------------|
A|---2---2-----------------------------------------------------------------------|
E|-0-----------------------------------------------------------------------------|
  intro
e|-----------0----------------0---------------------------------------0----------|
B|---------0-0-0----------3-----3---3-----------1--------0------------0----------|
G|-------0-------0------2---2-----2-----------0--------0----------0--------------|
D|-----2--------------0---------------------2--------2----------2----------------|
A|---2------------------------------------3--------2----------2------------------|
E|-0--------------------------------------------------------0--------------------|
   Standing      by my  window......
e|-------0--------------------0-----|----|-------2---------------------------0---------|
B|-----3---------3----------0---0---|-oo-|-----3-----------------1---------0---0-------|
G|---2---------0----------0-------0-|----|---2-----------0-----2---------0-------0-----|
D|-0---------4----------2-----------|----|-0-----------0-----2---------2---------------|
A|---------2----------2-------------|-oo-|-----------2-----0---------2-----------------|
E|------------------0---------------|----|---------3---------------0-------------------|
   asked us if we were happy..             took us by the....
e|--------0--------------------------------|-------3------------------5-------------|Repeat x3
B|--------0--------------------------------|-------0--------------------------------|
G|------0--------------------------0-------|-----0----------------------0-----------|
D|----2------------------------4-----4-----|---2------------------4-------4---------|
A|--2------------------------5---5-----5---|-2------------------5---5-------5-------|
E|-----------------------------------------|----------------------------------------|
we followed the dream of .....              we thought we'd roll .....
e|-0--2--3--5--3--0--------|-------------------------------------------------------|
B|-----------------0-------|-------------------------------------------------------|
G|------------------0------|-------------------------------------------------------|
D|-------------------2-----|--555-7-9-7-5---2h4-\-2~~~~~---------------------------|
A|--------------------2----|-------------------------------------------------------|
E|-------------------------|-------------------------------------------------------|
  verse solo 1              verse solo 2
e|----------------------------------------------------------------------------|Distortion
B|----------------------------------------------------------------------------|
G|----------------------------------------------------------------------------|
D|----------2-----------7-------------5-------4-------2-----------------------|
A|----------2-----------5-------------3-------2-------2-----------------------|
E|----------0-----------------------------------------0-----------------------|
 |                                                                            |
e|----------------0-------2---3--2--0-----------------------0-----------------|Clean
B|----------------0-------3---3--3--3-------1-------0-------0-----------------|
G|----------------0-------2---------------0-------0---------0-----------------|
D|-5-9-7--------2-------0---0-----------2-------2---------2-------------------|
A|------------2-----------------------3-------2---------2---------------------|
E|----------0-----------------------------------------0-----------------------|
            AHHHHHH
e|---------------------------------------------------------------------------|
B|---------------------------------------------------------------------------|
G|---------------------------------------------------------------------------|
D|---------------------------------------------------------------------------|
A|---------------------------------------------------------------------------|
E|---------------------------------------------------------------------------|


| /  slide up
| \  slide down
| h  hammer-on
| p  pull-off
| ~  vibrato
| +  harmonic
| x  Mute note
===========================================================================
Suggest correction new What's this?
You can suggest a correction to this tab. Community and Mods will review your correction and vote to approve or reject it.
comments
We did not receive enough feedback on this tab! Please rate:
print report bad tab
1 2 3 4 5
guest
You may want to rate the tab now too:
select rating
Please do not post tabs as comments. Select "correction" instead!