Oops, an error
Loading. Please wait.

Electric Eye Bass Tab

version 1
version 1
22,659 views 72 this week
no commentswrite comment
1 2 3 4 5
excellent!
x 3
add to favorites
launch autoscroll
font size
0
reset
guitar tuner
Tab Pro tools
  • play this tab
  • loop segment
  • change instrument
  • show fretboard
  • metronome
×
Best way to learn
"Electric Eye"
Autoscroll
slow
fast
+/-
esc
set tempo
stop
Contributor
#----------------------------------PLEASE NOTE---------------------------------#
#This file is the author's own work and represents their interpretation of the #
#song. You may only use this file for private study, scholarship, or research. #
#------------------------------------------------------------------------------#

ELECTRIC EYE (Bassline)
As recorded by Judas Priest

Transcribed by Jeff Perrin
	

Words and Music by Glenn Tipton, Rob Halford, and K.K. Downing

Gtr I (E A D G) - 'Bass'

 Intro
  Fast Heavy Metal Q=194
 1/8 4/4
  Gtr I
  E   +Q   H.        H.      E E   +Q   H.        H    E Q  E
|---|--------------|-------------|--------------|-------------|
|---|--------------|-------------|--------------|-------------|
|---|--------------|-------------|--------------|-------------|
|-0-|-(0)----------|-----------5-|-(5)----------|--------7--0-|


  +Q   Q  Q.   E   +Q   Q  Q.   E   +Q   Q  Q.   E   +Q    Q  Q.   E
|----------------|----------------|----------------|-----------------|
|----------------|----------------|----------------|-----------------|
|--------------3-|-(3)------------|----------------|-----------------|
|-(0)------------|--------------5-|-(5)----------7-|-(7)\----------0-|


                                                         1.
    E E E E E E E E   E E E E E E E E   E E E E E E E E   E E Q  E E Q
||------------------|-----------------|-----------------|-----------------||
||o-----------------|-----------------|-----------------|----------------o||
||o-----------------|-----------------|-----------------|----------------o||
||--0-0-0-0-0-0-0-0-|-0-0-0-0-0-0-0-0-|-0-0-0-0-0-0-0-0-|-0-0-0--0-0-0----||


                     Verses
  2.
  E E E E E E E E     +E  E E E E E E E   E E E E E E E E
|-----------------||--------------------|-----------------|
|-----------------||o-------------------|-----------------|
|---------------0-||o-(0)-0-0-0-0-0-0-0-|-0-0-0-0-0-0-0-0-|
|-0-0-0-0-0-0-0---||--------------------|-----------------|


  E E E E E E E E   E E E E E E E E   E E E E E E E E
|-----------------|-----------------|-----------------|
|-----------------|-----------------|-----------------|
|-0-0-0-0-0-0-0-0-|-0-0-0-0-0-0-0-0-|-0-0-0-0-0-0-0-0-|
|-----------------|-----------------|-----------------|


  E E E E E E E E   E E E E E E E E   E E E E E E E E
|-----------------|-----------------|-----------------|
|-----------------|-----------------|-----------------|
|-0-0-0-0-0-0-0-0-|-0-0-0-0-0-0-0-0-|-0-0-0-0-0-0-0---|
|-----------------|-----------------|---------------0-|


  +E  E E E E E E E   E E E E E E E E   E E E E E E E E
|-------------------|-----------------|-----------------|
|-------------------|-----------------|-----------------|
|-------------------|-----------------|-----------------|
|-(0)-0-0-0-0-0-0-0-|-0-0-0-0-0-0-0-0-|-0-0-0-0-0-0-0-0-|


  E E E E E E E E   E E E E E E E E   E E E E E E E E
|-----------------|-----------------|-----------------|
|-----------------|-----------------|-----------------|
|-----------------|-----------------|-----------------|
|-0-0-0-0-0-0-0-0-|-0-0-0-0-0-0-0-0-|-0-0-0-0-0-0-0-0-|


                                      Pre-Chorus
                                    $
  E E E E E E E E   E E E E E E E E    +E  E E E E E E E
|-----------------|-----------------||-------------------|
|-----------------|-----------------||-------------------|
|-----------------|---------------3-||-(3)-3-3-3-3-3-3-3-|
|-0-0-0-0-0-0-0-0-|-0-0-0-0-0-0-0---||-------------------|


  E E E E E E E E   +E  E Q  E E Q    E E Q  E E E E
|-----------------|-----------------|----------------|
|-----------------|-----------------|----------------|
|-3-3-3-3-3-3-3-0-|-(0)-0-0--0-0-0--|-0-0-0--0-0-0-5-|
|-----------------|-----------------|----------------|


                                                      To Coda
  +E  E Q  E E E E   E E E E E E E E   +E  E Q  E E E E   W
|------------------|-----------------|------------------|--------||
|------------------|-----------------|------------------|--------||
|-(5)-5-5--5-5-5-5-|-5-5-5-5-5-5-5---|------------------|--------||
|------------------|---------------7-|-(7)-7-7--7-7-7-7-|-7\-----||


 Chorus
  E E Q  E E Q    Q  E E E E Q    E E E E E E E E   E E E E E E E E
|---------------|---------------|-----------------|-----------------|
|---------------|---------------|-----------------|-----------------|
|---------------|---------------|-----------------|-----------------|
|-0-0-0--0-0-0--|-0--0-0-0-0-0--|-0-0-0-0-0-0-0-0-|-0-0-0-0-0-0-0-0-|


                                                  1.
  E E Q  Q  Q    E E E E E E Q    E E E E E E Q    E E Q  E E E E
|--------------|----------------|----------------|-----------------||
|--------------|----------------|----------------|----------------o||
|--------------|----------------|----------------|--------------0-o||
|-0-0-0--0--0--|-0-0-0-0-0-0-0--|-0-0-0-0-0-0-0--|-0-0-0--0-0-0----||


                              Guitar Solo
  2.
  W          +H.      +E  E    +E  E E E E Q  E
|----------|----------------||------------------|
|----------|----------------||------------------|
|----------|--------------7-||-(7)-7-7-7-7-5--7-|
|-7--------|-(7)------(7)---||------------------|


  +E  E E E E Q  E   +H     Q.   E   +H.      +E  E
|------------------|---------------|----------------|
|------------------|---------------|----------------|
|-(7)-7-7-7-7-5--3-|-(3)-----------|--------------7-|
|------------------|--------3----0-|-(0)------(0)---|


  +E  E E E E Q  E   +E  E E E E Q  E   +H     Q.   E
|------------------|------------------|---------------|
|------------------|------------------|---------------|
|-(7)-7-7-7-7-5--7-|-(7)-7-7-7-7-5--3-|-(3)-----------|
|------------------|------------------|--------3----0-|


  +E  E Q  E E E E   +E  E E E E Q  E   +E  E E E E Q  E
|------------------|------------------|------------------|
|------------------|------------------|------------------|
|------------------|------------------|------------------|
|-(0)-0-0--0-0-0-7-|-(7)-7-7-7-7-5--7-|-(7)-7-7-7-7-5--3-|


  +E  E Q  Q  E E   +E  E E E E E E E   +E  E E E E Q  E
|-----------------|-------------------|------------------|
|-----------------|-------------------|------------------|
|-----------------|-------------------|------------------|
|-(3)-3-3--5--5-7-|-(7)-7-7-7-7-7-7-7-|-(7)-7-7-7-7-5--7-|


  +E  E E E E Q  E   +E  E Q  Q  E E   +E  E Q  E E E E
|------------------|-----------------|------------------|
|------------------|-----------------|------------------|
|------------------|-----------------|----------------3-|
|-(7)-7-7-7-7-5--3-|-(3)-3-3--5--5-7-|-(7)-7-7--7-7-7---|


  +E  E Q  E E E E   E E E E E E E E   +E  E E E E E Q    E E E E E E E E
|------------------|-----------------|------------------|-----------------|
|------------------|-----------------|------------------|-----------------|
|-(3)-3-3--3-3-3-3-|-3-3-3-3-3-3-3-0-|-(0)-0-0-0-0-0-0--|-0-0-0-0-0-0-0-3-|
|------------------|-----------------|------------------|-----------------|


  +E  E E E E E E E   E E Q  E E E E   +E  E Q  E E Q    Q  Q  E E E E
|-------------------|----------------|-----------------|---------------||
|-------------------|----------------|-----------------|---------------||
|-(3)-3-3-3-3-3-3-3-|-3-3-3--3-3-3-2-|-(2)-2-2--2-2-2--|-5--5--5-5-5---||
|-------------------|----------------|-----------------|-------------0-||


 F
  +Q   H.        H.      E E   +Q   H.        H    E Q  E
|--------------|-------------|--------------|-------------|
|--------------|-------------|--------------|-------------|
|--------------|-------------|--------------|-------------|
|-(0)----------|-----------5-|-(5)----------|--------7--0-|


  +Q   Q  Q.   E   +Q   Q  Q.   E   +Q   Q  Q.   E   +Q   Q.    Q.
|----------------|----------------|----------------|-----------------||
|----------------|----------------|----------------|-----------------||
|--------------3-|-(3)------------|----------------|-----------14\---||
|-(0)------------|--------------5-|-(5)----------7-|-(7)-------------||


   Bridge
    E E E E E E E E   E E E E E E E E  4x
||------------------|------------------||
||o-----------------|-----------------o||
||o-----------------|-----------------o||
||--5-5-5-5-5-5-5-5-|-5-5-5-5-5-5-5-5--||


    E E E E E E E E   E E E E E E E E
||------------------|------------------||
||o-----------------|-----------------o||
||o-----------------|-----------------o||
||--5-5-5-5-5-5-5-5-|-5-5-5-5-5-5-5-5--||


  Q  E E E E E E   Q  E E E E E E   Q  E E E E E E   E E E E E E Q
|----------------|----------------|----------------|----------------|
|----------------|----------------|----------------|----------------|
|-2--2-2-2-2-2-2-|-2--2-2-2-2-2-2-|-2--2-2-2-2-2-2-|----------------|
|----------------|----------------|----------------|-2-2-2-2-2-2-2--|


                                                            D.S. al Coda
  E E E E E E E E   E E E E E E E E   E E E E E E E E   E E E E E E E E
|-----------------|-----------------|-----------------|-------------------||
|-----------------|-----------------|-----------------|-------------------||
|-2-2-2-2-2-2-2-2-|-2-2-2-2-2-2-2-2-|-2-2-2-2-2-2-2-2-|---------------3---||
|-----------------|-----------------|-----------------|-2-2-2-2-0-0-0-----||


   Out-Chorus
    &
    E E Q  E E Q    Q  E E E E Q    E E E E E E E E   E E E E E E E E   3x
||----------------|---------------|-----------------|-------------------||
||o---------------|---------------|-----------------|------------------o||
||o---------------|---------------|-----------------|------------------o||
||--0-0-0--0-0-0--|-0--0-0-0-0-0--|-0-0-0-0-0-0-0-0-|-0-0-0-0-0-0-0-0---||


  E E Q  E E Q    Q  E E E E Q    Q  Q  +E  Q.
|---------------|---------------|----------------|
|---------------|---------------|----------------|
|---------------|---------------|----5--(5)------|
|-0-0-0--0-0-0--|-0--0-0-0-0-0--|-----------5----|


  Q  Q  +E  Q.     Q  Q  +E  Q.     W
|----------------|----------------|------*|
|----------------|----7--(7)------|------*|
|----------------|----5--(5)------|------*|
|----3--(3)-0----|-----------3----|-0----*|



Duration Legend
---------------
W - whole; H - half; Q - quarter; E - 8th; S - 16th; T - 32nd; X - 64th; a - acciaccatura
+ - note tied to previous; . - note dotted; .. - note double dotted
Uncapitalized letters represent notes that are staccato (1/2 duration)
Irregular groupings are notated above the duration line
Duration letters will always appear directly above the note/fret number it represents the
duration for.  Duration letters with no fret number below them represent rests.  Multi-
bar rests are notated in the form Wxn, where n is the number of bars to rest for.  Low
melody durations appear below the staff

Tablature Legend
----------------
 h   - hammer-on
 p   - pull-off
 b   - bend
 pb  - pre-bend
 r   - bend release (if no number after the r, then release immediately)
 /\  - slide into or out of (from/to "nowhere")
 s   - legato slide
 S   - shift slide
 - natural harmonic
[n]  - artificial harmonic
n(n) - tapped harmonic
 ~   - vibrato
 tr  - trill
 T   - tap
 TP  - trem. picking
 PM  - palm muting
\n/  - tremolo bar dip; n = amount to dip
 \n  - tremolo bar down
 n/  - tremolo bar up
/n\  - tremolo bar inverted dip
 =   - hold bend; also acts as connecting device for hammers/pulls
 <> - volume swell (louder/softer)
 x   - on rhythm slash represents muted slash
 o   - on rhythm slash represents single note slash

Misc Legend
-----------
 |  - bar
||  - double bar
||o - repeat start
o|| - repeat end
*|  - double bar (ending)
 :  - bar (freetime)
 $  - Segno
 &  - Coda
Tempo markers -  = BPM(8/16=s8/s16), where s8 = swing 8ths, s16 = swing 16ths

comments
We did not receive enough feedback on this tab! Please rate:
print report bad tab
1 2 3 4 5
I want to post or [tab]
guest
You may want to rate the tab now too:
select rating
Please do not post tabs as comments. Select "correction" instead!