Oops, an error
Loading. Please wait.

Electric Eye Tab

version 1
version 1
194,675 views 309 this week
5 commentsread comments
1 2 3 4 5
accurate
x 28
add to favorites
launch autoscroll
font size
0
reset
how to read this tab
guitar tuner
Autoscroll
slow
fast
+/-
esc
set tempo
stop
Help us to improve Ultimate-Guitar.com Take our survey!
×
Electric Eye   Judas Priest


I intro play twice

e|---------------------------------------------------------------------------|
B|---------------------------------------------------------------------------|
G|---9-------------------------------------------------------------9---------|
D|---9--------------10----------------7---------------9---------9--9---------|
A|---7---7--9--10---10---7--9--10-----7---7---9--10---9--9--10--9--7---------|
E|------------------8-----------------5---------------7---------7------------|


 II  play this twice
         / /     / /     /             /  /     /  /
e|---------------------------------------------------------------------------|
B|---------------------------------------------------------------------------|
G|--9---------9-------9-----7--7----9--------9--------9----14---12-----------|
D|--9---------9-------9-----7--7----9--------9--------9----14---12-----------|
A|--7---------7-------7-----7--7----7--------7--------7----12---12-----------|
E|---------------------------------------------------------------------------|

( the  /   marks mean just barely touch the strings and strike with the pick)


III   A                G  A                       G
      up here in space     i'm lookin down on you
      etc....


IV   Chords are like 2nd line of intro above:
     you think you know me but you havent got a clue


V   then...

e|---------------------------------------------------------------------------|
B|---------------------------------------------------------------------------|
G|---------------------------------------------------------------------------|
D|------------10-----------------------7-------------------------12----------|
A|--7--9--10--10-------------7--9--10--7---------------7--9--10--12----------|
E|------------8------------------------5-------------------------10----------|
             Im made of metal         my circuits gleam         blah blah
                                                                 /
                             Oh man!!! I should know this_______/

e|---------------7-----------------------------------------------------------|
B|---------------7-----------------------------------------------------------|
G|---------------8-----------------------------------------------------------|
D|------------9-------12-11-11-9--7--9--12--9---12---------------------------|
A|--7--9--10--9-------10-9--9--7--5--7--10--7---10---------------------------|
E|------------7--------------------------------------------------------------|
                     im electric       eletcric spy


e|---------------------------------------------------------------------------|
B|---------------------------------------------------------------------------|
G|---------------------------------------------------------------------------|
D|--------------------12-11-11-9--7--9--12--9---9----------------------------|
A|--------------------10-9--9--7--5--7--10--7---9----------------------------|
E|----------------------------------------------7----------------------------|
                     im electric       electric eye


that is all you can get out of me for now if i can find more
(the lead) i'll mail it. But really if you play well enough to play this
lead you shouldn't need me, cause I sure can't play it!!!  Lets hear it
for KK and Glenn. :-) Yeah!!
Suggest correction
comments
print report bad tab
5 comments total. Showing first comments.
+2 reply
Imperial Guitar 10 wrote on April 4 2007, 06:37 pm

I think you got it man! How about adding the Hellion to this? and a solo? Awesome!

+4 reply
MegaShadowZX 87 wrote on August 9 2007, 03:54 pm

"I am perpetual, I keep the country clean!"
I listen to the song all 24/7, so I felt I should give you that. Great tab!

+2 reply
eldoplaysguitar 347 wrote on May 8 2008, 04:50 am

awesome tab the best one and easiest to read

guest
You may want to rate the tab now too:
select rating
Please do not post tabs as comments. Select "correction" instead!