Oops, an error
Loading. Please wait.

Electric Eye Tab

version 2
version 2
138,860 views 102 this week
19 commentsread comments
1 2 3 4 5
x 42
add to favorites
launch autoscroll
font size
0
reset
how to read this tab
guitar tuner
Autoscroll
slow
fast
+/-
esc
set tempo
stop
Help us to improve Ultimate-Guitar.com Take our survey!
×
Author
Gtr I (E A D G B E) - 'K.K. Downing - Rhythm w/dist'
Gtr II (E A D G B E) - 'Glen Tipton - Rhythm w/dist'
Gtr III (E A D G B E) - 'Glen Tipton - Lead w/dist'

[Intro]
  Q=194
 4/4
  Gtr I
           PM  PM    PM                PM  PM    PM
  E   +E   E E E  E  E  E   E     +E   E E E  E  E  E  E
e|---|--------------------------|-------------------------|
B|---|--------------------------|-------------------------|
G|---|--------------------------|-------------------------|
D|-9-|-(9)\---2---[4]---[5]-----|---------2---[4]---[5]-2-|
A|-7-|-(7)\-----------0-----[3]-|-([3])-----------0-----0-|
E|---|------0---0---------------|-------0---0-------------|
|
 | Gtr II
 | E   +Q     Q    Q     E   E     +Q     Q    Q     E  E
e|---|--------------------------|-------------------------|
B|---|--------------------------|-------------------------|
G|---|--------------------------|-------------------------|
D|-9-|-(9)\---2----4-----5------|---------2----4-----5----|
A|-7-|-(7)\------------------3--|--(3)------------------0-|
E|---|--------------------------|-------------------------|
    |-Rhy Fig 1

       PM  PM  PM          PM
   +E  E E E E E E E   +E  E E E E Q  E
e|-------------------|------------------|
B|-------------------|------------------|
G|-------------------|------------------|
D|-(2)---2---4---5---|-------4---5-4--9-|
A|-(0)---------0---2-|-(2)-----2---2--7-|
E|-----0---0---------|-----0------------|
|
 | +Q    Q   Q   E E   +Q    Q   E Q  E
e|-------------------|------------------|
B|-------------------|------------------|
G|-------------------|------------------|
D|-------2---4---5-4-|-(4)---4---5-4S=9-|
A|-(0)-------------2-|-(2)---------2S=7-|
E|-------------------|------------------|
                         end Rhy Fig 1-|

 w/Rhy Fig 1
        PM  PM    PM     ~~~~~~~~~PM  PM  PM
   +E   E E E  E  E  E   E    +E  E E E E E E E
e|--------------------------|-------------------|
B|--------------------------|-------------------|
G|--------------------------|-------------------|
D|-(9)\---2---[4]---[5]-----|-------2---4---5---|
A|-(7)\-----------0-----[3]-|-(3)---------0---0-|
E|------0---0---------------|-----0---0---------|


       PM  PM    PM                PM
   +E  E E E  E  E  E   E     +E   E E E E E E E
e|-------------------------|---------------------|
B|-------------------------|---------------------|
G|-------------------------|-------------------9-|
D|-------2---[4]---[5]-----|---------4---5---4-9-|
A|-(0)-----------0-----[2]-|-([2])-----2-------7-|
E|-----0---0---------------|-------0-------0-----|


                                                          1.
    Gtrs I, II
         PM|   PM--|     PM--|               PM|   PM--|
    +Q   E E E E E E   E E E E Q  E E   +Q   E E E E E E   Q  a E E +Q   E E
||-------------------|----------------|------------------|--------------------||
||o------------------|----------------|------------------|-------------------o||
||--(9)------9-------|-9-------7--7-9-|-(9)------9-------|-9---------------9--||
||--(9)------9-------|-9-------7--7-9-|-(9)------9-------|-9--7s8s7-(7)--5-9--||
||o-(7)------7-------|-7-------5--5-7-|-(7)------7-------|-7--7s8s7-(7)--5-7-o||
||-------0-0---0-0-0-|---0-0-0--------|------0-0---0-0-0-|--------------------||


[Verse]
  2.
                             PM|   PM--|     PM--|
  Q  a E E +Q   E E     +Q   E E E E E E   E E E E q  E E
|-------------------||-------------------|----------------|
|-------------------||o------------------|----------------|
|-9---------------2-||--(2)------2-------|-2-------0--0-2-|
|-9--7s8s7-(7)--0-2-||--(2)------2-------|-2-------0--0-2-|
|-7--7s8s7-(7)----0-||o-(0)--0-0-0-0-0-0-|-0-0-0-0--------|
|-------------------||-------------------|----------------|


       PM|   PM--|     PM--|               PM|   PM--|
  +Q   E E E E E E   E E E E q  E E   +Q   E E E E E E
|------------------|----------------|------------------|
|------------------|----------------|------------------|
|-(2)------2-------|-2-------0--0-2-|-(2)------2-------|
|-(2)------2-------|-2-------0--0-2-|-(2)------2-------|
|------0-0---0-0-0-|---0-0-0--------|------0-0---0-0-0-|
|------------------|----------------|------------------|


    PM--|               PM|   PM--|     PM--|
  E E E E q  E E   +Q   E E E E E E   E E E E q  E E
|----------------|------------------|----------------|
|----------------|------------------|----------------|
|-2-------0--0-2-|-(2)------2-------|-2-------0--0-9-|
|-2-------0--0-2-|-(2)------2-------|-2-------0--0-9-|
|---0-0-0--------|------0-0---0-0-0-|---0-0-0------7-|
|----------------|------------------|----------------|


       PM|   PM--|     PM--|   PM           PM|   PM--|
  +Q   E E E E E E   E E E E E E E E   +Q   E E E E E E
|------------------|-----------------|------------------|
|------------------|-----------------|------------------|
|-(9)------9-------|-9-------7---7-9-|-(9)------9-------|
|-(9)------9-------|-9-------7---7-9-|-(9)------9-------|
|-(7)------7-------|-7-------5---5-7-|-(7)------7-------|
|------0-0---0-0-0-|---0-0-0---0-----|------0-0---0-0-0-|


                            PM|   PM--|     PM--|   PM
   Q  a E E +Q   E E   +Q   E E E E E E   E E E E E E E E
e|-------------------|------------------|-----------------|
B|-------------------|------------------|-----------------|
G|-9---------------9-|-(9)------9-------|-9-------7---7-9-|
D|-9--7s8s7-(7)--5-9-|-(9)------9-------|-9-------7---7-9-|
A|-7--7s8s7-(7)--5-7-|-(7)------7-------|-7-------5---5-7-|
E|-------------------|------0-0---0-0-0-|---0-0-0---0-----|


 [Pre-Chorus]
                                      $
        PM|   PM--|     PM  PM  PM
   +Q   E E E E E E   E E E E E E E E    +W
e|------------------|-----------------||--------|
B|------------------|-----------------||--------|
G|-(9)------9-------|-9---------------||--------|
D|-(9)------9-------|-9---2---4---5---||--------|
A|-(7)------7-------|-7-------------3-||-(3)----|
E|------0-0---0-0-0-|---0---0---0-----||--------|


       PM  PM                            PM  PM
   +E  E E E  Q   E E   +W           +E  E E E Q  E E
e|--------------------|------------|------------------|
B|--------------------|------------|------------------|
G|--------------------|------------|----------------2-|
D|-------2---[4]--5---|------------|-------2---4--5-0-|
A|-(3)--------------0-|-(0)--------|-(0)--------------|
E|-----0---0----------|------------|-----0---0--------|


                                                          To Coda
                    PM  PM
   +W           +E  E E E Q  E E   +H.      Q      H.       +Q
e|------------|------------------|-------------|------------------||
B|------------|------------------|-------------|-/12-------(12)\--||
G|-(2)--------|-(2)--------------|-------------|-/11-------(11)\--||
D|-(0)--------|-(0)---4---5--7-4-|-(4)---------|------------------||
A|------------|----------------2-|-(2)p=====0--|------------------||
E|------------|-----0---0--------|-------------|------------------||


 [Chorus]
   Q  Q  +E  Q.     Q.   E +Q   Q    Q  Q  +E  Q.     W
e|----------------|----------------|----------------|------|
B|----3--(3)-2----|-0--------------|----3--(3)-2----|-0----|
G|----2--(2)-2----|-0----9-(9)--7--|----2--(2)-2----|-0----|
D|----2--(2)-2----|-0----9-(9)--7--|----2--(2)-2----|-0----|
A|----------------|------7-(7)--5--|----------------|------|
E|-0--------------|----------------|-0--------------|------|


                                                     1.
   Q  Q  +E  Q.     Q.   E +Q   Q    Q  Q  +E  Q.     H.      +E  E
e|----------------|----------------|----------------|----------------||
B|----3--(3)-2----|-0--------------|----3--(3)-2----|-0-------(0)---o||
G|----2--(2)-2----|-0----9-(9)--7--|----2--(2)-2----|-0-------(0)-2--||
D|----2--(2)-2----|-0----9-(9)--7--|----2--(2)-2----|-0-------(0)-2--||
A|----------------|------7-(7)--5--|----------------|---------------o||
E|-0--------------|----------------|-0--------------|----------------||


  2.
  Gtr III
  |-3--|
  E  E E  E E  S S  S S  S S  S  S    S   S  S  S  S  S  S  S  S  S  S  S  e  E
|-7h10p7----7-11p8----8-12p9----10-|-13p=10----11-14p11----11-15p12----13-16----||
|--------10--------10--------11----|--------12----------13----------14-------18-||
|----------------------------------|--------------------------------------------||
|----------------------------------|--------------------------------------------||
|----------------------------------|--------------------------------------------||
|----------------------------------|--------------------------------------------||
|
 | Gtrs I, II
 | W                                  +H.                                   E  E
e|----------------------------------|--------------------------------------------||
B|----------------------------------|--------------------------------------------||
G|-4--------------------------------|-(4)-----------------------------------4--9-||
D|-4--------------------------------|-(4)-----------------------------------4--9-||
A|-2--------------------------------|-(2)-----------------------------------2--7-||
E|----------------------------------|--------------------------------------------||


  Guitar Solo
               ~~~~
    +Q        +Q     +Q        E  E
e|----------------------------------------|
B|-(18)b21===(18)---(18)r\---/18-18b20====|
G|----------------------------------------|
D|----------------------------------------|
A|----------------------------------------|
E|----------------------------------------|
|
 |             PM---|          PM
 |  +Q         E  E   E    E   E  E
e|----------------------------------------|
B|----------------------------------------|
G|--(9)--------9--9---9----7------9-------|
D|--(9)--------9--9---9----7------9-------|
A|--(7)--------7--7---7----5------7-------|
E|-----------------------------0----------|


         ~~~~~~
                                              |--3--|  |--3--|  |---3---|
   +E    Q.         +E    Q   E        +Q     E  E  E  E  E  E  E  E    E
|----------------------------15b17==|=(15)r--12-------15p12---------------|
|-(18)r-18b21======(18)r\-----------|-----------15p12-------12------------|
|-----------------------------------|--------------------------12-14---12-|
|-----------------------------------|-------------------------------------|
|-----------------------------------|-------------------------------------|
|-----------------------------------|-------------------------------------|
|
 |              PM--|
 |  +Q          E E   E    Q   E        +H              Q.            E
e|-----------------------------------|-------------------------------------|
B|-----------------------------------|-------------------------------------|
G|--(9)---------9-9---9----7---5-----|--(5)--------------------------------|
D|--(9)---------9-9---9----7---5-----|--(5)-------------5-------------2----|
A|--(7)---------7-7---7----5---3-----|--(3)-------------5-------------2----|
E|-----------------------------------|------------------3-------------0----|


   |----3-----|  |--3--|
   E     +E   E  E  E  E  E      +E   +E   E
|-----------------------------------------17--|
|---------------------------------------------|
|-14b16r(14)p12-------------------------------|
|---------------14-12-------------------------|
|---------------------------------------------|
|---------------------15-12b15==(12)r(12)-----|
|
 | +H                     +E       E    E   E
e|---------------------------------------------|
B|---------------------------------------------|
G|---------------------------------9----9---9--|
D|-(2)--------------------(2)------9----9---9--|
A|-(2)--------------------(2)------7----7---7--|
E|-(0)--------------------(0)------------------|


    +E   S  S  S  S  E  S  S  E  S  S  E
e|-(17)p15p14-15p14----14s12----12-------|
B|------------------17-------15----15-12-|
G|---------------------------------------|
D|---------------------------------------|
A|---------------------------------------|
E|---------------------------------------|
|
 |             PM------|         PM
 |  +Q         E     E  E     E  E     E
e|---------------------------------------|
B|---------------------------------------|
G|--(9)--------9-----9--9-----7--------9-|
D|--(9)--------9-----9--9-----7--------9-|
A|--(7)--------7-----7--7-----5--------7-|
E|-------------------------------0-------|


                |---3---|  |---3---|  |---3---|    |--3---|  |-3--|  |-3--| |--3---|
   S   S  S  S  E  E    E  E  E    E  E  E    E    E   E  E  E  E E  E E  E E  E   E
|-12h=15p12----12-------------------------------|-------------------------------------|
|-----------15----15---12-15-12------12---------|-14p=11----11------------------------|
|---------------------------------14----15---14-|--------12----12-9-12p9----9---------|
|-----------------------------------------------|------------------------12---11---9--|
|-----------------------------------------------|-------------------------------------|
|-----------------------------------------------|-------------------------------------|
|
|               PM--------|
| +Q            E    E     E    q          E      +H                 Q.          E
|-----------------------------------------------|-------------------------------------|
|-----------------------------------------------|-------------------------------------|
|-(9)-----------9----9-----9----7----------5----|-(5)---------------------------------|
|-(9)-----------9----9-----9----7----------5----|-(5)----------------5-----------2----|
|-(7)-----------7----7-----7----5----------3----|-(3)----------------5-----------2----|
|-----------------------------------------------|--------------------3-----------0----|


                   ~~
   |--3--| |-3--|
   E  E  E E  E E  Q   +E    E        +Q     S  S  S  S  S  S  S  S  S  S  S     S
|----------------------------------|--------14-17-17-14-14-14-17-14-14-17-------14-|
|---------------------------17b19==|=(17)r--------------------------------17b19----|
|----------------------------------|-----------------------------------------------|
|-12p=9----9-----------------------|-----------------------------------------------|
|-------12---10-9------------------|-----------------------------------------------|
|-----------------12--(12)\--------|-----------------------------------------------|
|
 |                                            PM---|                  PM
 | +H.                  +E    E        +Q     E     E     E     E     E     E
e|----------------------------------|-----------------------------------------------|
B|----------------------------------|-----------------------------------------------|
G|----------------------------------|-----------------------------------------------|
D|-(2)------------------(2)---9-----|--(9)----9-----9-----9-----7-----------9-------|
A|-(2)------------------(2)---9-----|--(9)----9-----9-----9-----7-----------9-------|
E|-(0)------------------(0)---7-----|--(7)----7-----7-----7-----5-----5-----7-------|


                                ~~~~~~
    S   S  S     S  S  S  S  S  Q        +E      E
e|-14--17-------14-14-17-17-14-17b19====(17)r\------|
B|--------17b19-------------------------------------|
G|--------------------------------------------------|
D|--------------------------------------------------|
A|--------------------------------------------------|
E|---------------------------------------------/14--|
|
|                  PM---|
| +Q               E     E     E     Q          E
|--------------------------------------------------|
|--------------------------------------------------|
|--------------------------------------------------|
|-(9)--------------9-----9-----9-----7----------5--|
|-(9)--------------9-----9-----9-----7----------5--|
|-(7)--------------7-----7-----7-----5----------3--|


           PM---------|                                                ~~~
   +E   E  E  S  S  S  S  S  S  S  S  S  S    S   S  S  S  S  S  S  S  Q.     +E
|------------------------------------------|---------------------------------------||
|------------------------------------------|---------------------------------------||
|------------------------------------------|-----------------------14-16-----(16)\-||
|------------------------------------14----|-----14-15-16-14-16-16-----------------||
|------------------14-15----14-15-17----15-|-17------------------------------------||
|-(14)-15-17-16-17-------17----------------|---------------------------------------||
|
 |  +Q      Q        Q           E     E      +H.                           E   E
e|------------------------------------------|---------------------------------------||
B|------------------------------------------|---------------------------------------||
G|------------------------------------------|---------------------------------------||
D|--(5)-----5S=======7-----------7-----9----|-(9)---------------------------9---9---||
A|--(5)-----5S=======7-----------7-----9----|-(9)---------------------------9---9---||
E|--(3)-----3S=======5-----------5-----7----|-(7)---------------------------7---7---||


    T            T           T           T
    S   S  S  S  S  S  S  S  S  S  S  S  S  S  S  S
e|-19p=14h17p14-19p14h16p14-19p14h17p14-19p14h16p14--|
B|---------------------------------------------------|
G|---------------------------------------------------|
D|---------------------------------------------------|
A|---------------------------------------------------|
E|---------------------------------------------------|
|
 |               PM---|                  PM
 | +Q            E     E     E     E     E     E
e|---------------------------------------------------|
B|---------------------------------------------------|
G|---------------------------------------------------|
D|-(9)-----------9-----9-----9-----7-----------9-----|
A|-(9)-----------9-----9-----9-----7-----x-----9-----|
E|-(7)-----------7-----7-----7-----5-----x-----7-----|


    T            T        T           T
    S   S  S  S  S  S  E  S  S  S  S  S  S  S  S
e|-22p=14h17p14-22p14-17s22p17h19p17-22p17h19p17-|
B|-----------------------------------------------|
G|-----------------------------------------------|
D|-----------------------------------------------|
A|-----------------------------------------------|
E|-----------------------------------------------|
|
|               PM---|
| +Q            E     E  E     q           E
|-----------------------------------------------|
|-----------------------------------------------|
|-----------------------------------------------|
|-(9)-----------9-----9--9-----7-----------5----|
|-(9)-----------9-----9--9-----7-----------5----|
|-(7)-----------7-----7--7-----5-----------3----|


                                                                          ~~~~~~~~~~
    S   S  S  S  +S  S  S  S  S  S  S  S  S  S  S  S    Q      E  E      +E   +Q        E
e|-19h=22p19-----------------19----------------------|--------19--------------------------|
B|-----------22-(22)22p21p19----22p21p19----21-22p21-|-22b24-----22b24==(22)-(22)r\-------|
G|---------------------------------------22----------|------------------------------------|
D|---------------------------------------------------|------------------------------------|
A|---------------------------------------------------|------------------------------------|
E|---------------------------------------------------|------------------------------------|
|
 | +Q             E     E     Q           E     E      +H.                          +E  E
e|---------------------------------------------------|------------------------------------|
B|---------------------------------------------------|------------------------------------|
G|---------------------------------------------------|----------------------------------5-|
D|-(5)------------5s====7-----7-----------------9----|-(9)--------------------------(9)-5-|
A|-(5)------------5s====7-----7-----------------9----|-(9)--------------------------(9)-3-|
E|-(3)------------3s====5-----5-----------0-----7----|-(7)--------------------------(7)---|


                      ~~~                        ~~~~~~~~~~~
   |-3--|  |-3-|
   Q  Q Q  Q Q Q      H.      E E    Q.      +E  H      +H     +E   E  Q
|------------------|--------------|-------------------|---------------------|
|-----7-8-10-8-7---|--8-------8p0-|-------------------|---------------------|
|--9---------------|--------------|--9pb11r==(9)-9----|-(9)----(9)s16-------|
|------------------|--------------|-------------------|---------------14\---|
|------------------|--------------|-------------------|---------------------|
|------------------|--------------|-------------------|---------------------|
|
 | +W                 +H.      E E   +W                  +H.           +E  E
e|------------------|--------------|-------------------|---------------------|
B|------------------|--------------|-------------------|---------------------|
G|-(5)--------------|-(5)--------2-|-(2)---------------|-(2)-----------(2)-5-|
D|-(5)--------------|-(5)------0-2-|-(2)---------------|-(2)-----------(2)-5-|
A|-(3)--------------|-(3)------0-0-|-(0)---------------|-(0)-----------(0)-3-|
E|------------------|--------------|-------------------|---------------------|


                      ~~~~~~~~~~
   |-3--|  |-3-|
   Q  Q Q  Q Q Q      Q.   +E  Q.    E
|------------------|-------------------|
|-----7-8-10-8-7---|--8----(8)S5-----4-|
|-/9---------------|-------------------|
|------------------|-------------------|
|------------------|-------------------|
|------------------|-------------------|
|
 | +W                 +H.           E E
e|------------------|-------------------|
B|------------------|-------------------|
G|-(5)--------------|-(5)-------------4-|
D|-(5)--------------|-(5)-------------4-|
A|-(3)--------------|-(3)-------------2-|
E|------------------|-------------------|


      PM----------|           PM-----|   TP
        |-3-| |-3-| |--3--|        |-3-|
  +E  E E E E E E E E E   E   E  E E E E Q  S  S  S  S
|---------------------------|-----------------------10---||
|-(4)-----------------------|------------4S=8-10-12------||
|-------------------2-3---4-|--------2-4-----------------||
|-------------2-3-5---------|-1--2-4---------------------||
|-----0-2-3-5---------------|----------------------------||
|---------------------------|----------------------------||
|
 | +H.               E   E     H.            E     E
e|---------------------------|----------------------------||
B|---------------------------|----------------------------||
G|-(4)-------------------7---|-7-------------7-----9------||
D|-(4)-------------------7---|-7-------------7-----9------||
A|-(2)---------------0---5---|-5-------------5-----7------||
E|---------------------------|----------------------------||


    Q     Q   H          W                   W                   W
e|-12\----------------|-------------------|-------------------|-----------------|
B|--------------------|-------------------|-------------------|-----------------|
G|--------------------|-------------------|-------------------|-----------------|
D|--------------------|-------------------|-------------------|-----------------|
A|--------------------|-------------------|-------------------|-----------------|
E|--------------------|-------------------|-------------------|-----------------|
|
 |      PM  PM  PM          PM  PM              PM  PM              PM
 | +E   E E E E E E E   +E  E E E E E E E   +E  E E E E E E E   +E  E Q  E Q  E
e|--------------------|-------------------|-------------------|-----------------|
B|--------------------|-------------------|-------------------|-----------------|
G|-(9)\---------------|-------------------|-------------------|-----------------|
D|-(9)\---2---4---5---|-------2---4---5-2-|-(2)---2---4---5-4-|-(4)---4--5-4S=9-|
A|-(7)\-------------3-|-(3)---------0---0-|-(0)---------x---2-|-(2)--------2S=7-|
E|------0---0---0-----|-----0---0---------|-----0---0---------|-----0-----------|


   Gtrs I, II
        PM  PM  PM  ~~~~~~~~PM  PM
   +E   E E E E E E E   +E  E E E E E E E
e|--------------------|-------------------|
B|--------------------|-------------------|
G|--------------------|-------------------|
D|-(9)\---2---4---5---|-------2---4---5-2-|
A|-(7)\-------------3-|-(3)-------0-0---0-|
E|------0---0---0-----|-----0---0---------|


       PM  PM              PM
   +E  E E E E E E E   +E  E E E E Q  E
e|-------------------|------------------||
B|-------------------|------------------||
G|-------------------|------------------||
D|-(2)---2---4-4-5-4-|-(4)---4---5-4--0-||
A|-(0)-------------2-|-(2)-----2---2--0-||
E|-----0---0---------|-----0------------||


 [Bridge]
     Gtr I
       PM|   PM|   PM--|   PM|
     E E E E E E E E   E E E E E E E E  4x
e||------------------|------------------||
B||o-----------------|-----------------o||
G||--7-----5-----7---|---5-----7---5h7--||
D||--7-----5-----7---|---5-----7p5-5h7--||
A||o---0-0---0-0---0-|-0---0-0---------o||
E||------------------|------------------||
|
 |   Gtr II
 |     PM|   PM|   PM--|   PM|   PM  PM
 |   E E E E E E E E   E E E E E E E E  4x
e||------------------|------------------||
B||o-----------------|-----------------o||
G||--7-----5-----7---|---5-----7---5----||
D||--7-----5-----7---|---5-----7---5----||
A||o---0-0---0-0---0-|-0---0-0---0---0-o||
E||------------------|------------------||


     Gtrs I, II
     PM  PM|          PM    ~~~~~~     PM  PM|          PM
     E E E E E E Q    E E E E +H       E E E E E E Q    E E E E E Q.
e||-----------------|----------------|----------------|------------------||
B||o----------------|----------------|----------------|-----------------o||
G||----7-----5s4-2--|---5---7-(7)----|---7-----5s4-2--|---5---7---5------||
D||----7-----5s4-2--|---5---7-(7)----|---7-----5s4-2--|---5---7---5------||
A||o-0---0-0--------|-0--------------|-0---0-0--------|-0---------------o||
E||-----------------|----------------|----------------|------------------||


   E E Q  +E  Q  E   Q  E E +E  E E E   E E Q  +E  Q.     Q.   E +Q   Q
e|-----------------|------------------|-----------------|----------------|
B|-----------------|------3-(3)-------|-----------------|----------------|
G|-----4--(4)-2----|-4----2-(2)---2h4-|-----4--(4)-2----|------2-(2)--4--|
D|-2h4-4--(4)-2----|-4------------2h4-|-2h4-4--(4)-2----|-4----2-(2)--4--|
A|-2---2--(2)----2-|----2-------2-----|-2---------------|-4--------------|
E|-----------------|------------------|-----------------|----------------|


                                                            D.S. al Coda
                                                            PM  PM  PM
   E E Q  +E  Q  E   Q  E E +E  E E E   E E Q  +E  Q.     E E E E E E E E
e|-----------------|------------------|-----------------|-----------------||
B|-----------------|------3-(3)-------|-----------------|-----------------||
G|-----4--(4)-2----|-4----2-(2)---2h4-|-----4--(4)-2----|-----------------||
D|-2h4-4--(4)-2----|-4------------2h4-|-2h4-4--(4)-2----|-4---2---4---5---||
A|-2---2--(2)----2-|----2-------2-----|-2---------------|-4-------------3-||
E|-----------------|------------------|-----------------|---2---2---2-----||


    [Out-Chorus]
     &
     Gtrs I, II
     Q  Q  +E  Q.     Q.   E +Q   Q    Q  Q  +E  Q.     W     3x
e||-----------------|----------------|----------------|-------||
B||o----3--(3)-2----|-0--------------|----3--(3)-2----|-0----o||
G||-----2--(2)-2----|-0----9-(9)--7--|----2--(2)-2----|-0-----||
D||-----2--(2)-2----|-0----9-(9)--7--|----2--(2)-2----|-0-----||
A||o----------------|------7-(7)--5--|----------------|------o||
E||--0--------------|----------------|-0--------------|-------||


   Q  Q  +E  Q.     Q.   E +Q   Q    Q  Q  +E  Q.
e|----------------|----------------|----------------|
B|----3--(3)-2----|-0--------------|----3--(3)-2----|
G|----2--(2)-2----|-0----9-(9)--7--|----2--(2)-2----|
D|----2--(2)-2----|-0----9-(9)--7--|----2--(2)-2----|
A|----------------|------7-(7)--5--|----------------|
E|-0--------------|----------------|----------------|


   +Q   Q  +E  Q.     Q  Q  +E  Q.     H    +H
e|------------------|----------------|-------------*|
B|-(2)--0--(0)------|----------------|-------------*|
G|-(2)--0--(0)-9----|----7--(7)------|-------------*|
D|-(2)--0--(0)-9----|----7--(7)-5----|-2----(2)----*|
A|-------------7----|----5--(5)-5----|-2----(2)----*|
E|------------------|-----------3----|-0----(0)----*|



************************************

| [n]  Artificial harmonic
| (n)  Ghost note
| PM   Palm mute
| ~    Vibrato
| /    Slide up
| h    Hammer-on
| p    Pull-off
| b    Bend
| x    Dead note
| pb   Pre-bend
| \    Slide down
| *    Natural harmonic

************************************
Suggest correction
comments
print report bad tab
19 comments total. Showing first comments. show 1 bad comment
+9 reply
Stolenidentity1 91 Sep 23, 2007 06:57 PM

incorrect comment please unplug your computer

0 reply
supea 16 Sep 24, 2007 03:06 PM

little complicated to read at first but great tab!


oh ye, unplug your computer

guest
You may want to rate the tab now too:
select rating
Wanna post a correction for this tab? Suggest correction