Oops, an error
Loading. Please wait.

Fever Tab

version 1
version 1

Whole song

Interactive

14,019 views 12 this week
4 commentsread comments
1 2 3 4 5
accurate
x 6
add to favorites
launch autoscroll
font size
0
reset
how to read this tab
guitar tuner
Autoscroll
slow
fast
+/-
esc
set tempo
stop
Help us to improve Ultimate-Guitar.com Take our survey!
×
Author
Fever by Judas Priest
Credit goes to Starbreaker from another site.

INTRO
E--------------------------------------------------------|
B--------------------------------------------------------|
G----5---5-4-0-4-2---------5--5---5-4-0-4-2---------5----|
D-----7------------3------5----7------------3------5-----|
A------7-------------3-3-3------7-------------3-3-3------|
E--------------------------------------------------------|

E-------------------------------------------|
B-------------------------------------------|
G----9------7----7-8-7-5-------5--5-4-0-4-2-|
D-----10------9----------7-5-7--7-----------|
A-------10----10-----------------7----------|
E-------------------------------------------|

E--------------------------------------------|
B--------------------------------------------|
G------2--2-0-2----------2--2-0-2------------|
D-----2--3-----3-0-2----2--3-----3-0-2-------|
A----0--0------------3-0--0-----------2-0----|
E--------------------------------------------|

I spent my days alone...

E--------------------------|
B--------------------------|
G----2--------5----7--9----|
D----2--------5----7--9----|
A--------------------------|
E--------------------------|

Darkness filled my soul...

E----------------|
B----------------|
G----5-7-7-9-2---|
D----5-7-7-9-2---|
A------------0---|
E----------------|

Down on the streets below...

E------------------------|
B------------------------|
G-------------7--9-5-----|
D----2--2202--7--9-5-----|
A----0--0000-------------|
E------------------------|


Living through this hell...

E---------------------------------------|
B---------------------------------------|
G----5--7--7--9-----------5--7--7--9----|
D----5--7--7--9--2-222----5--7--7--9----|
A----------------0-000------------------|
E---------------------------------------|

FEVER... YOU SET MY SOUL ON FIRE...

E-------------------------------------------------|
B-------------------------------------------------|
G-------------------------------------------------|
D----2-2-5-2-2220000--2-2-5-2-222--22-5-22-0------|
A----0-0-3-0-0000000--0-0-3-0-000-----------3-----|
E--------------------------------------------3----|

Pre-Solo-Bit!

E-------------------------|
B-------------------------|
G-------------------------|
D----10-------------------|
A------12----------3-5----|
E------------0-3-5--------|

Solo

E----------14-19~--------14-17~-------14-16-18-----------------------|
B----16-17---------16-17--------16-17----------15-----------15-------|
G-------------------------------------------------16--14-16----16----|
D--------------------------------------------------------------------|
A--------------------------------------------------------------------|
E--------------------------------------------------------------------|

E----22b--22-19--19-17----------------------------|
B----------------------18-17h18p17-15-17-15-------|
G-------------------------------------------17-14-|
D-------------------------------------------------|
A-------------------------------------------------|
E-------------------------------------------------|
Suggest correction
comments
print report bad tab
4 comments total. Showing first comments.
0 reply
livewire76 60 wrote on September 3 2009, 07:22 am

Just wanted to fill in a section thats missing.

So destiny has brought us...

E-----------------------------------------------------
B-----------------------------------------------------
G---7-9---7-------7-9---7-9---7-------999-555---------
D---7-9---7---7---7-9---7-9---7---7---999-555-777-999-
A---5-7---5---7---5-7---5-7---5---7---777-333-777-999-
E-------------5-------------------5-----------555-777-

Living the dream...
*Let ring*
E-----------------------------------------
B-----------------------------------------
G---7-9---7-------7-9---7-9---7-------5---
D---7-9---7---7---7-9---7-9---7---7---5---
A---5-7---5---7---5-7---5-7---5---7---3---
E-------------5-------------------5-------

0 reply
livewire76 60 wrote on September 3 2009, 07:25 am

F*uck. The *let ring* was meant to be over the last chord in the bar.

This bit is so easy anyway and if you listen to or know the song then you'll know what i meant.

0 reply
bigblockelectra 20 wrote on October 14 2009, 11:54 pm

Intro is wrong, the other Fever tab is 100% correct should be uploaded tomorrow.

guest
You may want to rate the tab now too:
select rating
Wanna post a correction for this tab? Suggest correction