Oops, an error
Loading. Please wait.

Freewheel Burning Bass Tab

version 1
version 1

Whole song

Interactive

2,418 views 18 this week
no commentswrite comment
1 2 3 4 5
excellent!
x 2
add to favorites
launch autoscroll
font size
0
reset
guitar tuner
Tab Pro tools
  • play this tab
  • loop segment
  • change instrument
  • show fretboard
  • metronome
Autoscroll
slow
fast
+/-
esc
set tempo
stop
Difficulty
intermediate
Band :Judas Priest
Album : defenders of the faith
Song freewheel burning
Ian hill
Intro riff

G|--------------------------|--------------------------|-----------------------|
D|--------------------------|--------------------------|-----------------------|
A|--------------------------|--------------------------|-------5----3----------|
E|--5--5--5--5--5--5--5--5--|--5--5--5--5--5--5--5--5--|--5--------------5--5--|

G|----------------------|-----------------------|----------------------|
D|----------------------|-----------------------|----------------------|
A|--5-------5----3------|-------5----3----------|--5-------5----3------|
E|-------5--------------|--5--------------5--5--|-------5--------------|

Verse riff (verse 1&2)

|---------------------------|
|*--------------------------|
|*--------------------------|
|---5--5--5--5--5--5--5--5--|

G|--------------------------|--------------------------|-------------------------|
D|--------------------------|--------------------------|-------------------------|
A|--------------------------|--------------------------|-------------------------|
E|--5--5--5--5--5--5--5--3--|--5--5--5--5--5--5--5--5--|--5--5--5--5--5--5--3----|

G|--------------------------|--------------------------|--------------------------|
D|--------------------------|--------------------------|--------------------------|
A|--------------------------|--------------------------|--------------------------|
E|--3--3--3--3--3--3--3--3--|--3--3--3--3--3--3--3--3--|--3--3--3--3--3--3--3--3--|

                            Repeat (x2)
G|--------------------------|-----------------------|-----------------------|
D|--------------------------|-----------------------|-----------------------|
A|--------------------------|-------5----3----------|--5-------5--L--3------| (x2)
E|--3--3--3--3--3--3--3--3--|--5--------------5--5--|-------5---------------|

Pre chorus riff

G|---------------------|----------------------|---------------------|
D|---------------------|----------------------|---------------------|
A|--7------5------7----|------5----7--5-------|--7------5------7----|
E||--------------------|------------------7---|---------------------|


G|------------------|---------------------|----------------------|---------------------|
D|------------------|---------------------|----------------------|---------------------|
A|------7----7------|--7------5------7----|------5----7--5-------|--7------5------7----|
E|------------------|---------------------|-----------------7----|---------------------|

G|---------------------|
D|---------------------|
A|------5----3----2----|
E|---------------------|

Chorus riff
G|--------------------|--------------|--------------------------|
D|--------------------|--------------|--------------------------|
A|--------------------|--------------|--5--5--5--5--5--5--5--5--|
E|--5------5-----5----|----5---------|--------------------------|


G|------------------------|--------------------|---------------|--------------------|
D|------------------------|--------------------|---------------|--------------------|
A|5--5--5--5--5--5--5--5--|--0------0------0---|----0----------|--3------0-----3----|
E|----------------------|--------------------|-----------------|--------------------|


G|--------------------|-------------------|------------------------|
D|--------------------|-------------------|------------------------|
A|--=----5------------|--=----------------|--5---------------------|
E|--------------------|-------------------|---------------3--3--3--|

Bridge

|-----------------------|----------------------|
|*----------------------|----------------------|
|*---------1--=----3----|--=---------1----3----|
|---3-------------------|-------3--------------|

G|----------------------|-----------------------|
D|----------------------|----------------------*|
A|---------1--=----3----|--L---------1----3----*|
E|--3-------------------|-------3---------------|


Before the solo

|----------------------|---------------------|
|----------------------|---------------------|
|--5-------------------|-----------3----5----|
|---------3--L----5----|------5--------------|

G|-------------------|--------------------|---------------------|-----------------------|
D|-------------------|--------------------|---------------------|-----------------------|
A|--5------3------5--|----------6----7----|--5-----3-----5----|-----------4----6--------|
E|-------------------|-----5--------------|-------------------|------5------------------|

G|-----------------|--------------------------|--------------------------|
D|-----------------|--------------------------|--------------------------|
A|-------5------7--|--------------------------|--2--2--2--2--2--2--2--2--|
E|--7--------------|--7--7--7--7--7--7--7--7--|--------------------------|


G|------------------------|-------------------|-------------|--------------------------|
D|------------------------|-------------------|-------------|--------------------------|
A|-2--2--2--2--2--2--2--2-|--2----------------|-------------|--2--2--2--2--2--2--2--2--|
E|------------------------|-------------------|-------------|--------------------------|


G|------------------------|-------------------|-------------|--------------------------|
D|------------------------|-------------------|-------------|--------------------------|
A|--2--2--2--2--2--2--2--2|--0----------------|--L----------|--2--2--2--2--2--2--2--2--|
E|------------------------|-------------------|-------------|--------------------------|

G|--------------------------|---------------|-------------------|-------------------|
D|--------------------------|---------------|-------------------|-------------------|
A|--2--2--2--2--2--2--2--2--|---------------|--5----------------|--7----------------|
E|--------------------------|--3------------|-------------------|-------------------|

G|-------------------|-------------|--------------|--------------|
D|-------------------|-------------|--------------|--------------|
A|--4----------------|--1----------|--------------|--2-----------|
E|-------------------|-------------|--2-----------|--------------|

Solo Glenn
4X                            4X
--------------------------|--------------------------|
--------------------------|--------------------------|
--------------------------|-0--0--0--0--0--0--0--0---|
--0--0--0--0--0--0--0--0--|--------------------------|

repeat the riff before of solo and chorus and fade out


enjoy the tab judas fans priest forever
comments
We did not receive enough feedback on this tab! Please rate:
print report bad tab
1 2 3 4 5
I want to post or [tab]
guest
You may want to rate the tab now too:
select rating
Please do not post tabs as comments. Select "correction" instead!