Oops, an error
Loading. Please wait.

Freewheel Burning Tab

version 1
version 1

Whole song

Interactive

18,440 views 42 this week
no commentswrite comment
1 2 3 4 5
x 8
add to favorites
launch autoscroll
font size
0
reset
how to read this tab
guitar tuner
Autoscroll
slow
fast
+/-
esc
set tempo
stop
Help us to improve Ultimate-Guitar.com Take our survey!
×
Freewheel Burning

By Judas Priest

Tabbed by Gabriel Hidalgo

*Listen the song to get the rythm

[Riff A] (intro)

e|-----------------------------|
B|-----------------------------|
G|-----------------------------|
D|-7----7----7----7----7---7---|
A|---00---00---00---00---0---0-|
E|-----------------------------|

[Riff B]

e|----------------------------|
B|----------------------------|
G|----7---5------7-----7--5---|
D|----7---5------7-----7--5---|
A|-00--------00-----0---------|
E|----------------------------|

[Riff C] (verse)

e|----------------------------------------------------------------------------|
B|----------------------------------------------------------------------------|
G|----------------------------------------------------------------------------|
D|-----------------------------------------5555555555555555-3/5-55555555555555|
A|-000000000000000-----0000000000000000---------------------------------------|
E|-----------------3b5------------------3b5-----------------------------------|

[Riff D] (prechorus)

e|---------------------------------------------------------------------|
B|---------------------------------------------------------------------|
G|---------------------------------------------------------------------|
D|-9--7--9----------9--7--9---99---9--7--9----------9--7--9--7--5--4---|
A|-7--5--7--5-7p5---7--5--7---77---7--5--7--5-7p5---7--5--7--5--3--2---|
E|----------------0-------------------------------0--------------------|

[Riff E] (chorus)

e|---------------------------------------------------------------|
B|---------------------------------------------------------------|
G|---------------------------------------------------------------|
D|-2--5--2-2---0h2h4h5---0h2h4h5---0h2h5--2-2-2-2---5---2---5---7|
A|-0--5--0-0------------------------------0-0-0-0---3---0---3---5|
E|---------------------------------------------------------------|

[Riff F]

e|---------------------------------------------------------------|
B|---------------------------------------------------------------|
G|----3--5-----3--5-----3--5-----5/6/5---------------------------|
D|-5--3--5--5--3--5--5--3--5--5--5/6/5---------------------------|
A|-5--------5--------5--------5----------------------------------|
E|---------------------------------------------------------------|

Guitar 1

e|------------------------------------------------------------------------------|
B|------------------------------------------------------------------------------|
G|----5--7-----5--7-----5--7-----7/8/7------5--7------6--8-----7--9-----9/10/9--|
D|-7--5--7--7--5--7--7--5--7--7--7/8/7---7--5--7---8--6--8--9--7--9--9--9/10/9--|
A|-7--------7--------7--------7----------7---------8--------9--------9----------|
E|------------------------------------------------------------------------------|

Guitar 2 (unison bends)

e|----------------------------------------------------------------------------|
B|-10----------------------------------------------6--------7-----------------|
G|-12b14-------------------------------------------8b10-----9b11--------------|
D|----------------------------------------------------------------------------|
A|----------------------------------------------------------------------------|
E|----------------------------------------------------------------------------|

[Riff G]

e|---------------------------------------------------------------------------|
B|---------------------------------------------------------------------------|
G|---------------------------------------------------------------------------|
D|---------4-------------------2-----------------------------7--9--6--4-----4|
A|-2222222-2-let ring--2222222-0-let ring---------5----------5--7--4--1--4--2|
E|----------------------------------------2222222-3-let ring-------------2---|

The notes for the solo are E, then A.
Twin guitar stuff

e|---------------------------------------------------------------|
B|-----15~--13--11--10~--11--10--8--6--10--8h10p8--6--5----------|
G|---------------------------------------------------------------|
D|-12------------------------------------------------------------|guitar 1
A|---------------------------------------------------------------|
E|---------------------------------------------------------------|
 |                                                               |
e|---------------------------------------------------------------|
B|---------------------------------------------------------------|
G|---------------------------------------------------------------|
D|-7--------5------------3-------------2-------------------------|guitar 2
A|-5---8----3--------3---1-------5-----0---5-------3--2----------|
E|-----6-------------1-----------3---------3-------1--0----------|


e|---------------------------------------------------------------|
B|-----15~--13--15--10~--11--10--8--6--10--8h10p8--6--5----------|
G|---------------------------------------------------------------|
D|-12------------------------------------------------------------|Guitar 1
A|---------------------------------------------------------------|
E|---------------------------------------------------------------|
 |                                                               |
e|---------------------------------------------------------------|
B|---------------------------------------------------------------|
G|-----7~---5---7------------------------------------------------|
D|------------------7~---8---7--5---3--7---5h7p5---3--2----------|Guitar 2
A|-5~------------------------------------------------------------|
E|---------------------------------------------------------------|
 |                                                               |
e|---------------------------------------------------------------|
B|---------------------------------------------------------------|
G|---------------------------------------------------------------|
D|-7--------5------------3-------------2-------------------------|Guitar 3
A|-5---8----3--------3---1-------5-----0---5-------3--2----------|(backing)
E|-----6-------------1-----------3---------3-------1--0----------|

This one looks pretty messed up, but Guitar 1 plays the lower notes and

guitar 2 the higher

e|----------------------------|   |-----------------------------------------|
B|----------------------------|   |-----------------------------------------|
G|----------------------------|   |--------------------------9~--7h9p7--5-4~|
D|10-77-9-77-10-77-9-77-10-7-9|   |9-55-7-55-9-55-7-55-9-5-7----------------|
A|----------------------------|X2 |-----------------------------------------|
E|----------------------------|   |-----------------------------------------|
 |                            |   |                                         |
e|----------------------------|   |-----------------------------------------|
B|----------------------------|   |--------------------------9~--7h9p7--5-9~|
G|9--55-7--55-9-55-7-55-9--5-7|   |7-44-5-44-7-44-5-44-7-4-5----------------|
D|----------------------------|X2 |-----------------------------------------|
A|----------------------------|   |-----------------------------------------|
E|----------------------------|   |-----------------------------------------|


e|----------------------------|   |-----------------------------------------|
B|----------------------------|   |-----------------------------------------|
G|----------------------------|   |--------------------------9~///////21~---|
D|10-77-9-77-10-77-9-77-10-7-9|   |9-55-7-55-9-55-7-55-9-5-7----------------|
A|----------------------------|X2 |-----------------------------------------|
E|----------------------------|   |-----------------------------------------|
 |                            |   |                                         |
e|----------------------------|   |-----------------------------------------|
B|----------------------------|   |--------------------------9~/////////21~-|
G|9--55-7--55-9-55-7-55-9--5-7|   |7-44-5-44-7-44-5-44-7-4-5----------------|
D|----------------------------|X2 |-----------------------------------------|
A|----------------------------|   |-----------------------------------------|
E|----------------------------|   |-----------------------------------------|

The backing riff for that piece is:

e|---------------------------------------------------------------|
B|---------------------------------------------------------------|
G|---------------------------------------------------------------|
D|-2------------------------------------------9------------------|
A|-0--let ring---3--------------5-------------7--let ring--------|
E|---------------1--let ring----3--let ring----------------------|

[Riff H] (please correct this)

e|--10-10--9-9--7-7--9-9--10--7---10-10--9-9--7-7--9-9--12--9----|
B|--0--0---0-0--0-0--0-0--0---0---0--0---0-0--0-0--0-0--0---0----|
G|---------------------------------------------------------------|
D|---------------------------------------------------------------|
A|---------------------------------------------------------------|
E|---------------------------------------------------------------|
 |                                                               |
e|---------------------------------------------------------------|
B|---------------------------------------------------------------|
G|---------------------------------------------------------------|
D|--4--mute-----------------------2---let ring-------------------|
A|--2-----------------------------0------------------------------|
E|---------------------------------------------------------------|

Then Repeat riff G and then riff E

That's mostly it, except for the solo and riff H, remember to listen the song
to get the rythm.  If somebody has a correction to make, please feel free to
mail me at jhidalgo@bitmed.med.uchile.cl



************************************

| /  Slide up
| b  Bend
| p  Pull-off
| h  Hammer-on
| ~  Vibrato

************************************
Suggest correction
comments
print report bad tab
guest
You may want to rate the tab now too:
select rating
Wanna post a correction for this tab? Suggest correction