Oops, an error
Loading. Please wait.

Green Manalishi Bass Tab

version 2
version 2

Whole song

Interactive

1,876 views 1 this week
3 commentsread comments
1 2 3 4 5
accurate
x 3
add to favorites
launch autoscroll
font size
0
reset
guitar tuner
Autoscroll
slow
fast
+/-
esc
set tempo
stop
Help us to improve Ultimate-Guitar.com Take our survey!
×
Author
Difficulty
novice
Standard Tuning

Intro
G|------------------------------------------------------------------------------|
D|------------------------------------------------------------------------------|
A|----------------------------------------------5/3-3-3-3-3---3--2-3-3-3--5-5-7-|
E|-0-0-0-0-0-0-0-0-0-0-0-0-0-0-0-0-0-0-0-0-0-0----------------------------------|

Verse (Keep playing E-E-E-E-E-E until Rob Halford start singing)
G|---------------------------------------------------------------|
D|---------------------------------------------------------------| 2x
A|---------------------------------------------------------------|
E|-0-0-0-0-0-0-0-0-0-0-0-0-0-0-0-0-0-0-0-0---0---0-3-5--3-5--3--0|

G|--------------------------------------|
D|--------------------------------------|
A|--------------------------------------|
E|-3-3-3-3-3-3-3-3--5-5-5-5-5-5-5-5--0~~|

Chorus
G|-------------------------------------------------|
D|-------------------------------------------------|
A|-7-5-7---10--9--7--5~~---------------------------| 2x
E|---------------------------0--2--3---3--2--3--5~~|

Ending
G|---------------------------------|
D|-5-4---2-------------------5-4-2-|
A|-----5---5-2-----------2-3-------|
E|-------------5-0-2-3-5-----------|

The song structure is:
Intro 2x
Verse
Chorus
Verse
Chorus
Intro 4x
Verse
Intro 4x
Ending
Suggest correction
Give kudos to tab author, rate the tab!
1 2 3 4 5
comments
print report bad tab
3 comments total.
0 reply
outpatient 91 wrote on December 20 2013, 07:12 pm

Good tab but the ending is wrong.

It should be:


G|-----------------------------------|
D|-----------2-----------------------|
A|-------2-5---2-5-3-2-------2-------|
E|-0-3-2---------------0-2-3---3-2-0-|

0 reply
felipe.bass 166 wrote on January 13 2014, 11:50 pm

Thanks for your reply, man. I will post the tab with your correction,can I?

0 reply
felipe.bass 166 wrote on January 13 2014, 11:51 pm, edited at 11:51 pm

.

guest
You may want to rate the tab now too:
select rating
Please do not post tabs as comments. Select "correction" instead!