Oops, an error
Loading. Please wait.

Grinder Bass Tab

version 1
version 1

Whole song

Interactive

4,881 views 6 this week
1 commentread comment
1 2 3 4 5
x 4
add to favorites
launch autoscroll
font size
0
reset
guitar tuner
Autoscroll
slow
fast
+/-
esc
set tempo
stop
Help us to improve Ultimate-Guitar.com Take our survey!
×
Author
Difficulty
novice
Song: Grinder
Album: British Steel (1980)
Writers: Glenn Tipton, K.K. Downing & Rob Halford


Main riff.
G |-----------------------------------------------------------------|
D |-----------------------------------------------------------------|
A |-0-0-0-0-0-0-0-0-0-0-0-0-0-0-0-0-----------------0-0-0-0-0-0-0-0-|
E |---------------------------------3-3-3-3-3-3-3-3-----------------|


Chorus.
G |----------------|----------------|
D |----------------|----------------|
A |----------------|----------------|
E |-0--2--0--2-5-2-|-0--2--0--2-5-2-|


Part C. (I have my license...)
G |--------------------------------------------------|
D |--------------------------------------------------|
A |--------------------------------------------------|
E |-0-0-0-1-2-2-2-0-0-0-1-2-2-2-5-5-4-4-0-0-0-0-4--2-|


Chorus (End)
G |----------------|----------------|----------------|----------------|----|
D |----------------|----------------|----------------|----------------|----|
A |----------------|----------------|----------------|----------------|----|
E |-0--2--0--2-5-2-|-0--2--0--2-5-2-|-0--2--0--2-5-2-|-0--2--0--2-5-7-|0--2|
Suggest correction
comments
print report bad tab
1 comment total.
0 reply
AlexiLaw 10 Mar 31, 2016 11:20 PM

everything I needed to figure it out thanks

guest
You may want to rate the tab now too:
select rating
Wanna post a correction for this tab? Suggest correction