Oops, an error
Loading. Please wait.

Grinder Tab

version 1
version 1

Whole song

Interactive

30,115 views 36 this week
no commentswrite comment
1 2 3 4 5
x 10
add to favorites
launch autoscroll
font size
0
reset
how to read this tab
guitar tuner
backing track
0:00
0:00
×
Best way to learn
"Grinder"
Autoscroll
slow
fast
+/-
esc
set tempo
stop
Artist: Judas Priest
Title: Grinder
E-mail: felipecepollini@hotmail.com

[INTRO] 4X
e|-----------------------------------|
B|-----------------------------------|
G|-----------------------------------|
D|-----------------------------------|
A|-7-----7-----7-----7-----7-10-10-9-|
E|-5-----5-----5-----5-----5--8--8-7-|
   x     x     x     x

[VERSE] 2X
e|---------------------------------------------------------------------------
B|---------------------------------------------------------------------------
G|---------------------------------------------------------------------------
D|---------------------------------------------------------------------------
A|-7-----7-----7-----7-----7-10-10-9-----7-----7-----7-----7-----7-10-10-9---
E|-5-----5-----5-----5-----5--8--8-7-----5-----5-----5-----5-----5--8--8-7---
   x     x     x     x                   x     x     x     x     x

e|--------------------------------------------------------------------|
B|--------------------------------------------------------------------|
G|--------------------------------------------------------------------|
D|---------------------------5-5--------------------------------------|
A|-5-----5-----5-----5-----5-3-3-5--7-----7-----7-----7-----7-10-10-9-|
E|-3-----3-----3-----3-----3-----3--5-----5-----5-----5-----5--8--8-7-|
   x     x     x     x              x     x     x     x

[CHORUS] 2X
e|-----------------------------------------------------|
B|-----------------------------------------------------|
G|-----------------------------------------------------|
D|-2-----4------4-------4-------4---2-----4-----7----4-|
A|-2-----4------4-------4-------4---2-----4-----7----4-|
E|-0-----2----2-2-2-2-2-2-2-2-2-2-2-0-----2-----5----2-|
              x   x x x   x x x   x

[VERSE] 2X
e|---------------------------------------------------------------------------
B|---------------------------------------------------------------------------
G|---------------------------------------------------------------------------
D|---------------------------------------------------------------------------
A|-7-----7-----7-----7-----7-10-10-9-----7-----7-----7-----7-----7-10-10-9---
E|-5-----5-----5-----5-----5--8--8-7-----5-----5-----5-----5-----5--8--8-7---
   x     x     x     x     x             x     x     x     x

e|--------------------------------------------------------------------|
B|--------------------------------------------------------------------|
G|--------------------------------------------------------------------|
D|---------------------------5-5--------------------------------------|
A|-5-----5-----5-----5-----5-3-3-5--7-----7-----7-----7-----7-10-10-9-|
E|-3-----3-----3-----3-----3-----3--5-----5-----5-----5-----5--8--8-7-|
   x     x     x     x              x     x     x     x

[CHORUS] 2X
e|-----------------------------------------------------|
B|-----------------------------------------------------|
G|-----------------------------------------------------|
D|-2-----4------4-------4-------4---2-----4-----7----4-|
A|-2-----4------4-------4-------4---2-----4-----7----4-|
E|-0-----2----2-2-2-2-2-2-2-2-2-2-2-0-----2-----5----2-|
              x   x x x   x x x   x

[RHYTHM FOR THE SOLO] 2X
e|---------------------------------------------------------------------------
B|---------------------------------------------------------------------------
G|---------------------------------------------------------------------------
D|---------------------------------------------------------------------------
A|-7-----7-----7-----7-----10-10-9---7-----7-----7-----7-----10-10-9---------
E|-5-5-5-5-5-5-5-5-5-5-5-5--8--8-7---5-5-5-5-5-5-5-5-5-5-5-5--8--8-7---------
     x x   x x   x x   x x             x x   x x   x x   x x

                                   end first time
e|-------------------------------|---------------------------------|
B|-------------------------------|---------------------------------|
G|-------------------------------|---------------------------------|
D|-------------------------5-5---|---------------------------------|
A|-5-----5-----5-----5-----3-3-5-|-7-----7-----7-----7-----10-10-9-|
E|-3-3-3-3-3-3-3-3-3-3-3-3-----3-|-5-5-5-5-5-5-5-5-5-5-5-5--8--8-7-|
   x x   x x   x x   x x           x x   x x   x x   x x

  end second time
e|---------------|
B|---------------|
G|---------------|
D|---------------|
A|-7-----7-----7-|
E|-5-5-5-5-5-5-5-|
     x x   x x

[BRIDGE] 2X
e|----------------------------------------------------------------------------
B|----------------------------------------------------------------------------
G|----------------------------------------------------------------------------
D|-2-----5---4-------4-------4-----------------------4-------4----------------
A|-2-----5---4-------4-------4-----2---2-2-2-4-------4-------4----------------
E|-0---0-3-0-2---2-2-2---2-2-2---2-0---0-0-0-2---2-2-2---2-2-2----------------
                 x x     x x                     x x     x x

                                                              end bridge
e|-----------------------------------------------------------|------|
B|-----------------------------------------------------------|------|
G|-----------------------------------------------------------|------|
D|---------------------------------------2---------4-------4-|------|
A|---7---7-6-6-2-------2-------2-------2-0-4-------4-------4-|-2--4-|
E|-2-5---5-4-4-0---0-0-0---0-0-0---0-0-0---2---2-2-2---2-2-2-|-0--2-|
x               x x     x x     x x         x x     x x

[FILL] 2X
e|-----------------------------------|
B|-----------------------------------|
G|-----------------------------------|
D|-----------------------------------|
A|-7-----7-----7-----7-----7-10-10-9-|
E|-5-----5-----5-----5-----5--8--8-7-|
   x     x     x     x

[VERSE] 2X
e|---------------------------------------------------------------------------
B|---------------------------------------------------------------------------
G|---------------------------------------------------------------------------
D|---------------------------------------------------------------------------
A|-7-----7-----7-----7-----7-10-10-9-----7-----7-----7-----7-----7-10-10-9---
E|-5-----5-----5-----5-----5--8--8-7-----5-----5-----5-----5-----5--8--8-7---
   x     x     x     x                   x     x     x     x

e|--------------------------------------------------------------------|
B|--------------------------------------------------------------------|
G|--------------------------------------------------------------------|
D|---------------------------5-5--------------------------------------|
A|-5-----5-----5-----5-----5-3-3-5--7-----7-----7-----7-----7-10-10-9-|
E|-3-----3-----3-----3-----3-----3--5-----5-----5-----5-----5--8--8-7-|
   x     x     x     x              x     x     x     x

[CHORUS] 4X                         end 1st, 2nd & 3rd time
e|----------------------------------|--------------------|
B|----------------------------------|--------------------|
G|----------------------------------|--------------------|
D|-2-----4------4-------4-------4---|-2-----4-----7----4-|
A|-2-----4------4-------4-------4---|-2-----4-----7----4-|
E|-0-----2----2-2-2-2-2-2-2-2-2-2-2-|-0-----2-----5----2-|
              x   x x x   x x x

  end 4th time
e|--------------------|
B|--------------------|
G|--------------------|
D|-2-----4-----7----9-|
A|-2-----4-----7----9-|
E|-0-----2-----5----7-|

  GRIN  DER
e|---------|
B|---------|
G|---------|
D|-2-----4-|
A|-2-----4-|
E|-0-----2-|

[CHORUS]
GUITAR#1
e|-----|----|----------|
B|-----|----|----------|
G|-----|----|----------|
D|-----|----|----------|
A|2--4-|----|2--4--7--4|
E|0--2-|----|0--2--5--2|

GUITAR#2
       PM..........
e|-----|-----------|----------|
B|-----|-----------|----------|
G|-----|-----------|----------|
D|-----|-----------|----------|
A|-----|444-444-444|----------|
E|-----|222-222-222|----------|

[BRIDGE]
e|--------|----|--------|----|--------|----|--------|S   |----|
B|--------|----|--------|----|--------|----|--------|E   |----|
G|--------|----|--------|----|--------|----|--------|C T |----|
D|--------|----|--------|----|--------|----|--------|O I |----|
A|2--2-3-4|----|2--2-3 4|----|7--7-4-2|----|2--2-6-4|N M |4-2-|
E|0--0-1-2|----|0--0-1-2|----|5--5-2-0|----|0--0-4-2|D E |2-0-|
(THATS HOW IT GOES BASICALLY, BUT PLEASE ADD SOME pm´s AT THE LAST NOTE
OF EVERY SECTION, IT SOUNDZ BETTER THEN)

************************************

| PM  Palm mute

************************************
Suggest correction
comments
print report bad tab
guest
You may want to rate the tab now too:
select rating
Wanna post a correction for this tab? Suggest correction