Oops, an error
Loading. Please wait.

Halls Of Valhalla Tab

version 1
version 1

Whole song

Interactive

9,594 views 24 this week
3 commentsread comments
1 2 3 4 5
x 4
add to favorites
launch autoscroll
font size
0
reset
how to read this tab
guitar tuner
Autoscroll
slow
fast
+/-
esc
set tempo
stop
Help us to improve Ultimate-Guitar.com Take our survey!
×
Author
Difficulty
Tuning
intermediate
D# G# C# F# A# D#
Halls of Valhalla
Written by Rob Halford, Glenn Tipton, Richie Faulkner
Album Redeemer of Souls (2014)

If you would like to change something in my tab just comment below. Thanks for viewing.
Matt

[Intro]
Eb|----------------------------------------------------------------------|
Bb|--5-8-10-12-10-8-5-8-10-12--5-8-10-12-10-8----------------------------|
Gb|----------------------------------------------14-12-11-12-------------|
Db|-------------------------------------------------------------14-12-14-|
Ab|----------------------------------------------------------------------|
Eb|----------------------------------------------------------------------|

Eb|----------------------------------------------10-8-7h8p7--|
Bb|--5-8-10-12-10-8-5-8-10-12--5-8-10-12-10-8--------------8-|
Gb|----------------------------------------------------------|
Db|----------------------------------------------------------|
Ab|----------------------------------------------------------|
Eb|----------------------------------------------------------|


Eb|----------------------------------------------------------------------|
Bb|--5-8-10-12-10-8-5-8-10-12--5-8-10-12-10-8----------------------------|
Gb|----------------------------------------------14-12-11-12-------------|
Db|-------------------------------------------------------------14-12-14-|
Ab|----------------------------------------------------------------------|
Eb|----------------------------------------------------------------------|

Intro 2 x2
Eb|----------------------------------------------------------------------|
Bb|----------------------------------------------------------------------|
Gb|----------------------------------------------------------------------|
Db|--2-----5-----7-----9-----7-----5-----2-----5-----7----9-----9---9h10-|
Ab|----0-0---0-0---0-0---0-0---0-0---0-0---0-0---0-0---0-0--0-0---0------|
Eb|----------------------------------------------------------------------|

Eb|--------------------------------------|
Bb|--------------------------------------|
Gb|----------------------------------7-4-|
Db|--2-----5-----7-----9-----7-----5-7-4-|
Ab|----0-0---0-0---0-0---0-0---0-0---5-2-|
Eb|--------------------------------------| on the second time

Eb|------------------------------------------|
Bb|------------------------------------------|
Gb|----------------------------------7-4-5-7-|
Db|--2-----5-----7-----9-----7-----5-7-4-5-7-|
Ab|----0-0---0-0---0-0---0-0---0-0---5-2-3-5-|
Eb|------------------------------------------|

Eb|-----------------------------------------------------------------------------------------------|
Bb|-----------------------------------------------------------------------------------------------|
Gb|-----------------------------------------------------------------------------------------------|
Db|--7/9--10\9--7/9--10\9----------7/9--10\9--7/9--10\9---------7/9--10\9--7/9--10\9--------------|
Ab|--5/7--8-\7--5/7--8-\7----------5/7--8-\7--5/7--8-\7---------5/7--8-\7--5/7--8-\7---9-5-7-4-2--|
Eb|-----------------------0-0-0-0-----------------------3p0-3p0------------------------7-3-5-2-0--| x2

Eb|-----------------------------------------|
Bb|-----------------------------------------|
Gb|-----------------------------------------|
Db|-2p0-4p0-5p0---------2p0-4p0-5p0--9-7-9--|
Ab|----------------------------------7-5-7--|
Eb|-------------00000000--------------------| x2

[Verse]

Eb|---------------|
Bb|---------------|
Gb|---------------|
Db|-9------7-4----|
Ab|-7-x18--5-2----|
Eb|---------------| x2

[Pre chrous]

Eb|------------------------------------|
Bb|------------------------------------|
Gb|----------------------------------4-|
Db|-2p0-4p0-5p0----------2p0-4p0-5p0-4-|
Ab|----------------------------------2-|
Eb|-------------00000000---------------|


[Chrous]

Eb|----------------------------------------------------------------------|
Bb|----------------------------------------------------------------------|
Gb|----------------------------------------------------------------------|
Db|--2-----5-----7-----9-----7-----5-----2-----5-----7----9-----9---9h10-|
Ab|----0-0---0-0---0-0---0-0---0-0---0-0---0-0---0-0---0-0--0-0---0------|
Eb|----------------------------------------------------------------------|

Eb|---------------------------------------|
Bb|---------------------------------------|
Gb|----------------------------------7-4--|
Db|--2-----5-----7-----9-----7-----5-7-4--|
Ab|----0-0---0-0---0-0---0-0---0-0---5-2--|
EBb|--------------------------------------| on thEBb sEBbconDBb timEBb

Eb|------------------------------------------|
Bb|------------------------------------------|
Gb|----------------------------------7-4-5-7-|
Db|--2-----5-----7-----9-----7-----5-7-4-5-7-|
Ab|----0-0---0-0---0-0---0-0---0-0---5-2-3-5-|
Eb|------------------------------------------|

[Verse]

Eb|---------------|
Bb|---------------|
Gb|---------------|
Db|-9------7-4----|
Ab|-7-x18--5-2----|
Eb|---------------| x2

[Pre chrous]

Eb|------------------------------------|
Bb|------------------------------------|
Gb|----------------------------------4-|
Db|-2p0-4p0-5p0----------2p0-4p0-5p0-4-|
Ab|----------------------------------2-|
Eb|-------------00000000---------------|


[Chrous]

Eb|----------------------------------------------------------------------|
Bb|----------------------------------------------------------------------|
Gb|----------------------------------------------------------------------|
Db|--2-----5-----7-----9-----7-----5-----2-----5-----7----9-----9---9h10-|
Ab|----0-0---0-0---0-0---0-0---0-0---0-0---0-0---0-0---0-0--0-0---0------|
Eb|----------------------------------------------------------------------|

Eb|--------------------------------------|
Bb|--------------------------------------|
Gb|----------------------------------7-4-|
Db|--2-----5-----7-----9-----7-----5-7-4-|
Ab|----0-0---0-0---0-0---0-0---0-0---5-2-|
Eb|--------------------------------------| on the second time

Eb|------------------------------------------|
Bb|------------------------------------------|
Gb|----------------------------------7-4-5-7-|
Db|--2-----5-----7-----9-----7-----5-7-4-5-7-|
Ab|----0-0---0-0---0-0---0-0---0-0---5-2-3-5-|
Eb|------------------------------------------|

Eb|----------------------------------------------------------------------------------------------------|
Bb|----------------------------------------------------------------------------------------------------|
Gb|----------------------------------------------------------------------------------------------------|
Db|--7/9--10\9--7/9--10\9----------7/9--10\9--7/9--10\9---------7/9--10\9--7/9--10\9-------------------|
Ab|--5/7--8-\7--5/7--8-\7----------5/7--8-\7--5/7--8-\7---------5/7--8-\7--5/7--8-\7---9-5-7-4-2-------|
Eb|-----------------------0-0-0-0-----------------------3p0-3p0------------------------7-3-5-2-0-------|


Eb|-19p0-17p0-15p0-14p0-12p0-15p0-x3------------7-0-0-7-0-0-7-0-7-0-0-7-0-0-7-0-|
Bb|-----------------------------------------------------------------------------|
Gb|-----------------------------------------------------------------------------|
Db|-----------------------------------------------------------------------------|
Ab|-----------------------------------7-10-7-9-5--------------------------------|
Eb|-----------------------------------5-8--5-7-3--------------------------------|

Eb|8-0-0-8-0-0-8-0-8-0-0-8-0-0-8-0-10-0-0-10-0-0-10-0-10-0-0-10-0-0-10-0-|
Bb|----------------------------------------------------------------------|
Gb|----------------------------------------------------------------------|
Db|----------------------------------------------------------------------|
Ab|----------------------------------------------------------------------|
Eb|----------------------------------------------------------------------|

Eb|-7-0-0-7-0-0-7-0-7-0-0-7-0-0-7-0---------------------------------|
Bb|---------------------------------8-0-0-8-0-0-8-0-8-0-0-8-0-0-8-0-|
Gb|-----------------------------------------------------------------|
Db|-----------------------------------------------------------------|
Ab|-----------------------------------------------------------------|
Eb|-----------------------------------------------------------------|

Eb|-----------------------------------------------------------------------------------------|
Bb|10-0-0-10-0-0-10-0-10-0-0-10-0-0-10-0-7-0-0-7-0-0-7-0-7-0-0-7-0-0-7-0--5-0-0-7-0-0-8-0-0-|
Gb|-----------------------------------------------------------------------------------------|
Db|-----------------------------------------------------------------------------------------|
Ab|-----------------------------------------------------------------------------------------|
Eb|-----------------------------------------------------------------------------------------|


Eb|---------------|
Bb|-10-0-0-12-----|
Gb|---------------|
Db|---------------|
Ab|---------------|
Eb|---------------|

[Verse]

Eb|---------------|
Bb|---------------|
Gb|---------------|
Db|-9------7-4----|
Ab|-7-x18--5-2----|
Eb|---------------| x2

Eb|---------------|
Bb|---------------|
Gb|---------------|
Db|---------------|
Ab|-----/7---7----|
Eb|-0-0----6------| x8

Eb|----------------------------------------------------------------------------------------------------|
Bb|----------------------------------------------------------------------------------------------------|
Gb|----------------------------------------------------------------------------------------------------|
Db|--7/9--10\9--7/9--10\9----------7/9--10\9--7/9--10\9---------7/9--10\9--7/9--10\9-------------------|
Ab|--5/7--8-\7--5/7--8-\7----------5/7--8-\7--5/7--8-\7---------5/7--8-\7--5/7--8-\7-------------------|
Eb|----------------------------------------------------------------------------------------------------|

Eb|------------------------------------|
Bb|------------------------------------|
Gb|----------------------------------4-|
Db|-2p0-4p0-5p0----------2p0-4p0-5p0-4-|
Ab|----------------------------------2-|
Eb|-------------00000000---------------|


[Chrous]

Eb|----------------------------------------------------------------------|
Bb|----------------------------------------------------------------------|
Gb|----------------------------------------------------------------------|
Db|--2-----5-----7-----9-----7-----5-----2-----5-----7----9-----9---9h10-|
Ab|----0-0---0-0---0-0---0-0---0-0---0-0---0-0---0-0---0-0--0-0---0------|
Eb|----------------------------------------------------------------------|

Eb|--------------------------------------|
Bb|--------------------------------------|
Gb|----------------------------------7-4-|
Db|--2-----5-----7-----9-----7-----5-7-4-|
Ab|----0-0---0-0---0-0---0-0---0-0---5-2-|
Eb|--------------------------------------| on the second time

Eb|-------------------------------------------|
Bb|-------------------------------------------|
Gb|----------------------------------7-4-5-7--|
Db|--2-----5-----7-----9-----7-----5-7-4-5-7--|
Ab|----0-0---0-0---0-0---0-0---0-0---5-2-3-5--|
Eb|-------------------------------------------| x4


Eb|----------------------------------------------------------------------------------------------------|
Bb|----------------------------------------------------------------------------------------------------|
Gb|----------------------------------------------------------------------------------------------------|
Db|--7/9--10\9--7/9--10\9----------7/9--10\9--7/9--10\9---------7/9--10\9--7/9--10\9-------------------|
Ab|--5/7--8-\7--5/7--8-\7----------5/7--8-\7--5/7--8-\7---------5/7--8-\7--5/7--8-\7---9-5-7-4-2-------|
Eb|-----------------------0-0-0-0-----------------------3p0-3p0------------------------7-3-5-2-0-------|



************************************

| b  Bend
| h  Hammer-on
| p  Pull-off
| /  Slide up
| \  Slide down
| x  Dead note

************************************
Suggest correction
comments
print report bad tab
3 comments total.
0 reply
mokkajojo 10 Jul 18, 2014 02:04 PM

very solid, though solo bridge, part after that and end solo are missing

0 reply
alexlpurple53 10 Jan 12, 2015 07:36 PM

nice I like this tab very much

0 reply
Servbot3779 21 Mar 20, 2016 02:09 AM

Heres part of the tab.

*slow dip
eb|------------------------------------------------|
Bb|------------------------------------------------|
Gb|12p0h12p0h12p0h12p0h12p0h12p0h12p0h12p0---------| x2

eb|------12-------12-------12-------12-------------|
Bb|15b17----15b17----15b17----15b17----15b17-------|
Gb|------------------------------------------------|

eb|------------------------------|-------|---------|
Bb|15p12h15p12\--/15p12h15p12\--/|x2 then|15b17----|
Gb|------------\/-------------\/-|-------|---------|

And thats all I got.

guest
You may want to rate the tab now too:
select rating
Wanna post a correction for this tab? Suggest correction