Oops, an error
Loading. Please wait.

Heading Out To The Highway Bass Tab

version 2
version 2

Whole song

Interactive

2,671 views 3 this week
no commentswrite comment
1 2 3 4 5
excellent!
x 3
add to favorites
launch autoscroll
font size
0
reset
guitar tuner
Tab Pro tools
  • play this tab
  • loop segment
  • change instrument
  • show fretboard
  • metronome
×
Best way to learn
"Heading Out To The Highway"
Autoscroll
slow
fast
+/-
esc
set tempo
stop
Contributor
G|----------------||---------------------------|-----------------------------|
D|----------------||---------------------------|-----------------------------|
A|----------------||---------------------------|-----------------------------|
E|----------------||--5--5--5--5--5--5--5--5---|-5--5--5--5--5--5--5--5------|
  guitar intro


G|-------------------------|---------------------||--------------------------|
D|-------------------------|---------------------||--------------------------|
A|-------------------------|---------------------||--------------------------|
E|--5--5--5--5--5--5--5--5-|---5---5----5---5----||---5--5--5--5--5--5--5----|
                                                 1st, 2nd & 3rd Verses


G|--------------------------|-------------------------|----------------------|
D|--------------------------|-------------------------|----------------------|
A|--------------------------|-------------------------|----------------------|
E|--5--5--5--5--5--5--5--5--|-5--5--5--5--5--5--5--5--|-5--5--5--5--5--5-3--1|


G|----------------------------|------------------------|---------------------|
D|----------------------------|------------------------|---------------------|
A|----------------------------|------------------------|---------------------|
E|---(1)-1--1--1--1--1--1--3--|---3--3--3--3--3--3--5--|-5--5--5--5--5--5--5-|


G|--------------------------|------------------------|-----------------------|
D|--------------------------|------------------------|-----------------------|
A|--------------------------|------------------------|-----------------------|
E|--5--5--5--5--5--5--5--5--|-5--5--5--5--5--5--5--5-|-5--5--5--5--5--5--5--5|


G|----------------------------------|----------------------------------------|
D|----------------------------------|----------------------------------------|
A|----------------------------------|----------------------------------------|
E|--5---5---5---5---5---5---5---5---|---5---5---5---5---5---5---3---1--------|



G|---------------------------|-----------------------|-----------------------|
D|---------------------------|-----------------------|-----------------------|
A|---------------------------|-----------------------|-----------------------|
E|-(1)--1--1--1--1--1--1--3--|---3--3--3--3--3--3--5-|-5--5--5--5--5--5--5---|


G|---------------------------||
D|---------------------------||
A|---------------------------||
E|--5--5--5--5--5--5--5--0---||



Chorus:

G|-----------------------|----------------------|----------------------------|
D|-----------------------|----------------------|----------------------------|
A|---------------------5-|---5--5---------------|-----------------------5----|
E|---0--0--0--0--0--0----|---------5----5--5--5-|--5--5--5--5--5--5--5-------|


G|-----------------------|-----------------------|---------------------------|
D|-----------------------|-----------------------|---------------------------|
A|--5--5-----------------|---------------------5-|--(5)--5--5----------------|
E|--------5-----5--5--0--|---0--0--0--0--0--0----|-------------5----5--5--5--|
                                                        3rd time TO CODA II


G|-----------------------|-----------------------|---------------------------|
D|-----------------------|-----------------------|---------------------------|
A|---------------------5-|---5--5----------------|-------------------------3-|
E|---5--5--5--5--5--5----|---------5----5--5--0--|--(0)--0--0--0--0--0--0----|


G|-----------------------|-------------------------||
D|-----------------------|-------------------------||
A|--3--3--3--3--3--3-----|-------------------------||
E|--------------------3--|----3--3--3--3--3--3--3--||
                              2nd time TO CODA



G||------------------------|------------------------|-------------------------||
D||*-----------------------|------------------------|------------------------*||
A||*-----------------------|------------------------|------------------------*||
E||-5--5--5--5--5--5--5--5-|-5--5--5--5--5--5--5--5-|-5--5--5--5--5--5--5--5--||


G|--------------------------------------|------------------------------------|
D|--------------------------------------|------------------------------------|
A|--------------------------------------|------------------------------------|
E|-5----5----5----5----5----5----5----5-|-5----5----5------------5-----5-----|
                                                           D.S. al coda.


Coda I :
G|----------------------------------|
D|*---------------------------------|*2X
A|*---------------------------------|*
E|----5---5---5---5---5---5---5---5-|



G|-------------------------|------------------|------------------------|
D|-------------------------|------------------|------------------------|
A|-------------------------|----------------2-|---2--2--2--2--2--2----|
E|--5--5--5--5--5--5--5--5-|---5---5----5-----|------------------------|


G|-----------------------------|
D|*---------------------------*|3X
A|*-2--2--2--2--2--2--2--2----*|
E|-----------------------------|


G|---------------------------||--------------------------------------------||
D|---------------------------||*---------------------------*---------------||*
A|-(2)--2--2--2--2--2--2--3--||*--2--2--2--2--2--2--2--2--(2)--------------||*
E|---------------------------||--------------------------------------------||
                                                           *=only 2nd time


G|----------------------------||---------------------------------------------|
D|----------------------------||---------------------------------------------|
A|--(2)--2--2--2--2--2--2-----||---------------------------------------------|
E|-------------------------3--||---3---3---3---3---3---3---5-----------------|
                                guitar solo 

G|----------------------------|---------------------|------------------------|
D|----------------------------|---------------------|------------------------|
A|--------------------------2-|--2--2----2--2--2--2-|-2--2--2--2--2--2--2----|
E|---(5)--5--5--5--5--5--5----|---------------------|----------------------3-|


G|---------------------------|-----------------------|-----------------------|
D|---------------------------|-----------------------|-----------------------|
A|---------------------------|---------------------2-|---2--2----2--2--2--2--|
E|---(3)--3--3----3--3--3--5-|---5--5--5--5--5--5----|-----------------------|


G||--------------------------||   ||------------------------||
D||*-------------------------||*  ||------------------------||
A||*-------------------------||*  ||---2---2-----2----------||
E||---2--2--2--2--2--2--2--2-||   ||------------------5-----||



Coda II:
G|---------------------------|----------------------|------------------------|
D|---------------------------|----------------------|------------------------|
A|-------------------------5-|---5--5---------------|---------------------5--|
E|--(0)--0--0--0--0--0--0----|---------5----5--5--5-|---5--5--5--5--5--5-----|







G|----------------------------|-------------------------|--------------------|
D|----------------------------|-------------------------|--------------------|
A|--(5)--5--5-----------------|-----------------------3-|--------------------|
E|-------------5-----5--5--0--|----0--0--0--0--0--0-----|--------------------|
                                                         ritardo.


G|-------------------|------------|
D|-------------------|------------|
A|-------------------|-0------0---|
E|------(3)----------|------------|
comments
We did not receive enough feedback on this tab! Please rate:
print report bad tab
1 2 3 4 5
I want to post or [tab]
guest
You may want to rate the tab now too:
select rating
Please do not post tabs as comments. Select "correction" instead!