Oops, an error
Loading. Please wait.

Heading Out To The Highway Tab

version 2
version 2

Whole song

Interactive

10,078 views 6 this week
no commentswrite comment
1 2 3 4 5
excellent!
x 5
add to favorites
launch autoscroll
font size
0
reset
how to read this tab
guitar tuner
Autoscroll
slow
fast
+/-
esc
set tempo
stop
Help us to improve Ultimate-Guitar.com Take our survey!
×
Contributor
Binbags 5,672
Band:  Judas Priest
Album: Point of Entry
Song:  Heading Out To The Highway

Copyright (c)  (CBS) (1981)
Version 1.0 - (06/02/05)



.  - palm mute           /  - slide up to
\  - slide down to       ~  - vibrato
h  - hammer on           b  - Bend
p  - pull off            Suffixes for bend
t  - tap                 f  - full bend    h - half bend
ph - pinched harmonic    q  - quarter bend t - tap bend
*  - see comment         ^  - Hold bend    r release bend
x  - Stuccatto           ~  - vibrato bend
,  - slight palm mute    () - ghost note, sustained note
"  - tremolo note        <> - Trill

Tunning E A D G B E

Intro and main riff
 [Pm]   [-PM-]   PM  [PM]      ~~[PM]  [-PM-]           ~~~~~~
E-------------------------------------------------------------------|
B-------------------------------------------------------------------|
G-----2---------5---4-----4-5-/7-----2---------5--4-5-4-------------|
D-----2---------5---5-----5-5-/7-----2---------5--5-5-5-5-----------|
A-0-0---0-0-0-0---0---0-0--------0-0---0-0-0-0--0--0----5-----------|
E-------------------------------------------------------------------|

 [Pm]   [-PM-]   PM  [PM]      ~~[PM]  [-PM-]                                
E-------------------------------------------------------------------|
B-------------------------------------------------------------------|
G-----2---------5---4-----4-5-/7-----2---------5--4-5-4-0-----------|
D-----2---------5---5-----5-5-/7-----2---------5--5-5-5-0-----------|
A-0-0---0-0-0-0---0---0-0--------0-0---0-0-0-0----------------------|
E-------------------------------------------------------------------|

 Verse
E-----------------------------------------------------|
B-----------------------------------------------------|
G-----------------------------------------------------|
D-2------5-------------2---------------------2--------|
A-0------3------5------0------3------5-------0--------|
E---------------3-------------1------3----------------|Rpt 2 X

 Chorus
E-------------------------------------------------------------------|
B-----3-----------3-----------3-----------3-------------------------|
G-----2---2---2---2---2-------2---2---2---2---2---------------------|
D-2---0---2---2---0---2---2---0---2---2---0---2---2---5-------------|
A-2-------0---0-------0---2-------0---0-------0---2---3---5---------|
E-0-----------------------0-----------------------0-------3---------|

Rpt main riff
Rpt verse
Rpt chorus

Lead line under 2nd chorus

E---------555555555555555----555555555555555555555------------------|
B------------------------5555---------------------5555--------------|
G-------------------------------------------------------------------|
D-------------------------------------------------------------------|
A-------------------------------------------------------------------|
E-------------------------------------------------------------------|

Rpt main riff

Interlude
E-----------------------|
B--------3--------------|
G--------2--------------|
D-4-------------2-------|
A-2-------------0-------|
E-----------------------| Rpt 4 X

 Backing for twin guitar solo

E[-----------------------------------------------|
B[-----------------------------------------------|
G[-----------------------------------------------|
D[---------------------2---------------4---------|
A[-------5-------------0---------------2---------|
E[-------3---------------------------------------|
 [
 [Twin guitar solo
 [
 [Guitar 1
 [       ~~~~    ~~~~                  ~~~~~~~~
E[-----------------------------------------------|
B[-----------------------------------------------|
G[-11-9--7-----/11----9--9br-9p-7--9--11---------|
D[-----------------------------------------------|
A[-----------------------------------------------|
E[-----------------------------------------------|
 [
 [Guitar 2
 [        ~~~~   ~~~~                  ~~~~~~~~
E[-----------------------------------------------|
B[-19-17-15----/19----17-17br17p15-17-19---------|
G[-----------------------------------------------|
D[-----------------------------------------------|
A[-----------------------------------------------|
E[-----------------------------------------------|Rpt 2 X
 [
 [Guitar 3 Enters 2nd time
 [                                     ~~~~~~~~~
E[--------------------17-17br14----17-19---------|
B[-----------------------------------------------|
G[-----------------------------------------------|
D[-----------------------------------------------|
A[-----------------------------------------------|
E[-----------------------------------------------|

Riff after solo
 [-PM] [--PM--]  PM  PM      PM
E------------------------------------------|
B---------------3---2---3-2-5---3-3-2-3-2--|
G-----4---------2---2---2-2-2---2-2-2-2-2--|
D-----4-------------------------4----------|
A-2-2-2-2-2-2-2---2---2-------2-2----------|
E------------------------------------------|

Rpt verse 
Rpt chorus

 Ending
E----------------------------------------------------|
B----------------------------------------------------|
G------2---------5--4-----4---5---7----(7)----2------|
D------2---------5--5-----5---5---7----(7)----2------|
A-0--0-0-----0-0-------0----------5----(5)----0------|
E----------------------------------------------------|




END
comments
print report bad tab
I want to post or [tab]
guest
You may want to rate the tab now too:
select rating
Please do not post tabs as comments. Select "correction" instead!