Oops, an error
Loading. Please wait.

Hell Bent For Leather Bass Tab

version 1
version 1
6,367 views 6 this week
3 commentsread comments
1 2 3 4 5
accurate
x 5
add to favorites
launch autoscroll
font size
0
reset
guitar tuner
Tab Pro tools
  • play this tab
  • loop segment
  • change instrument
  • show fretboard
  • metronome
×
Best way to learn
"Hell Bent For Leather"
Autoscroll
slow
fast
+/-
esc
set tempo
stop
Contributor
Difficulty
novice
-------------------------------------------------------------------------------
		    Hell Bent For Leather - Judas Priest
-----------------------------------------------------------------------------

Tabbed By : Nick Johnson 

  Intro
G|-------------------|
D|-------------------|
A|-------------------|
E|-0-1-2-3-4-5-1-0---|

  Verse and Solo
G|----------------|
D|----------------|
A|-0-0-0-0-0-etc.-|
E|----------------|

  Pre-Chorus
G|----------------|
D|----------------|
A|----------------|
E|-5-5-5-5-5-etc.-|

  Chorus
G|----------------------------------|
D|--------------------------2-5---0-|
A|--0-0-0-0-0-0-0----2-5-3-------0--|
E|-----------------3-----------1----|

  Post Chorus
G|---------------------|
D|---------------------|
A|---------------------|
E|-0-1-2-3-4-5-1-0-0---|


=============================================================================
comments
print report bad tab
3 comments total.
0 reply
hellsing666 wrote on October 20 2006, 07:42 pm

in the verse you need to add --2-1-0- pr the 2nd lowest string every couple of -0-0-0-0-0-0
youd know this if you listened to the part where the bass comes in

0 reply
hellsing666 wrote on October 20 2006, 07:45 pm

could use a solo part

0 reply
ritchie.77 wrote on February 11 2014, 10:11 am

Judas Priest - Hell bent for leather (cover)
http://www.youtube.com/watch?v=fPnvz4YoM6w

I want to post or [tab]
guest
You may want to rate the tab now too:
select rating
Please do not post tabs as comments. Select "correction" instead!