Oops, an error
Loading. Please wait.

Hell Bent For Leather Tab

version 3
13,690 views 6 this week
1 commentread comment
1 2 3 4 5
accurate
x 6
add to favorites
launch autoscroll
font size
0
reset
how to read this tab
guitar tuner
Tab Pro tools
  • play this tab
  • loop segment
  • change instrument
  • show fretboard
  • metronome
×
Best way to learn
"Hell Bent For Leather"
Autoscroll
slow
fast
+/-
esc
set tempo
stop
Contributor
Difficulty
intermediate
   Tuning: Standard
   Time Signature: 4/4  

   The timing is a little off, but the notes and bars are all correct.
   Listen to the song for the correct timing. This is my first tab.

  Lead Guitar
   T      T      T      T        T      T      T      T
|-12p5h8-12p5h8-12p5h8-12p5h8-|-12p5h8-12p5h8-12p5h8-12p5h8-|
|-----------------------------|-----------------------------|
|-----------------------------|-----------------------------|
|-----------------------------|-----------------------------|
|-----------------------------|-----------------------------|
|-----------------------------|-----------------------------|
|
| Rhythm Guitar
|-----------------------------|-----------------------------|
|-----------------------------|-----------------------------|
|-----------------------------|-----------------------------|
|--7--------------------------|-(7)-------------------------|
|--7--------------------------|-(7)-------------------------|
|--5--------------------------|-(5)-------------------------|


   T      T      T      T        T       T      T      T
|-12p5h7-12p5h7-12p5h7-12p5h7-|-12p4h7-12p4h7-12p4h7-12p4h7-|
|-----------------------------|-----------------------------|
|-----------------------------|-----------------------------|
|-----------------------------|-----------------------------|
|-----------------------------|-----------------------------|
|-----------------------------|-----------------------------|
|
|-----------------------------|-----------------------------|
|-----------------------------|-----------------------------|
|--9--------------------------|-(9)-------------------------|
|--9--------------------------|-(9)-------------------------|
|--7--------------------------|-(7)-------------------------|
|-----------------------------|-----------------------------|


   T      T      T      T        T       T      T      T
|-12p3h7-12p3h7-12p3h7-12p3h7-|-12p3h7-12p3h7-12p3h7-12p3h7-|
|-----------------------------|-----------------------------|
|-----------------------------|-----------------------------|
|-----------------------------|-----------------------------|
|-----------------------------|-----------------------------|
|-----------------------------|-----------------------------|
|
|-----------------------------|-----------------------------|
|-----------------------------|-----------------------------|
|-----------------------------|-----------------------------|
|--5--------------------------|-(5)-------------------------|
|--5--------------------------|-(5)-------------------------|
|--3--------------------------|-(3)-------------------------|


                                                  
   T      T      T      T        T       T
|-12p2h5-12p2h5-12p2h5-12p2h5-|-10p2h5-10p2h5h10p2------||
|-----------------------------|-------------------------||
|-----------------------------|-------------------------||
|-----------------------------|-------------------------||
|-----------------------------|-------------------------||
|-----------------------------|-------------------------||
|
|-----------------------------|-------------------------||
|-----------------------------|-------------------------||
|--7--------------------------|-(7)---------------------||
|--7--------------------------|-(7)---------------------||
|--5--------------------------|-(5)---------------------||
|-----------------------------|-------------------------||

                                               vvvvvvvvvvvvvvvvvvvv      
|-17b19--------------------------|-17---------19-------------------|
|------20b22-20b22---------------|-----20b22-----------------------|
|------------------19pb21r--(19)-|---------------------------------|
|--------------------------------|---------------------------------|
|--------------------------------|---------------------------------|
|--------------------------------|---------------------------------|
|
|                   PM----|                    PM-------|
|--------------------------------|---------------------------------|
|--------------------------------|---------------------------------|
|--2---------(2)--------------2--|-(2)------------------------2----|
|--2---------(2)--------------2--|-(2)------------------------2----|
|--0---------(0)----0-----0---0--|-(0)---------0-0--0-0--0----0----|
|--------------------------------|---------------------------------|


                                                      vvvvvvvvvvvvv
|--------------------------------|---------------------------------|
|-20b21r20--17-20-17-----17------|-20-20---------------------------|
|--------------------------------|-------19-19-21-20-17------------|
|--------------------------------|---------------------------------|
|--------------------------------|---------------------------------|
|--------------------------------|---------------------------------|
|
|      PM--------------|                       PM----------|
|--------------------------------|---------------------------------|
|--------------------------------|---------------------------------|
|-(2)-----------------------2----|-(2)------------------------2----|
|-(2)-----------------------2----|-(2)------------------------2----|
|-(0)------0-0-0-0-----0----0----|-(0)--------0----0--0-0-0---0----|
|--------------------------------|---------------------------------|


|--------------------------------|----------------------------|
|------------20------------------|--7h8p7p5-7p5---------------|
|--17-----17---------------------|-----------------7p5--------|
|------19------------------------|----------------------------|
|--------------------------------|----------------------------|
|--------------------------------|----------------------------|
|
|         PM-------------|                  PM-----------|
|--------------------------------|----------------------------|
|--------------------------------|----------------------------|
|-(2)--------------------------2-|-(2)----------------------2-|
|-(2)--------------------------2-|-(2)----------------------2-|
|-(0)-------0---0---0---0---0--0-|-(0)-------0---0---0--0-0-0-|
|--------------------------------|----------------------------|


|--------------------------------|-------------------------------||
|--5p4p3-------------------------|-------------------------------||
|--------5p4p2-5p4p2-0h2p0-------|-------------------------------||
|--------------------------4-----|-h5p4p2-4p2p0------------------||
|--------------------------------|--------------3h5p3p2h3--------||
|--------------------------------|-------------------------------||
|
|         PM--------------|                 PM----------------|
|--------------------------------|-------------------------------||
|--------------------------------|-------------------------------||
|-(2)-------------------------2--|-(2)---------------------------||
|-(2)-------------------------2--|-(2)---------------------------||
|-(0)-----0---0---0---0---0---0--|-(0)-----0---0---0---0---0-0---||
|--------------------------------|-------------------------------||
comments
print report bad tab
1 comment total.
0 reply
ritchie.77 wrote on February 11 2014, 10:09 am

Judas Priest - Hell bent for leather (cover)
http://www.youtube.com/watch?v=fPnvz4YoM6w

I want to post or [tab]
guest
You may want to rate the tab now too:
select rating
Please do not post tabs as comments. Select "correction" instead!