Oops, an error
Loading. Please wait.

Hell Bent For Leather Tab

version 2
version 2
5,692 views 27 this week
no commentswrite comment
1 2 3 4 5
x 4
add to favorites
launch autoscroll
font size
0
reset
how to read this tab
guitar tuner
backing track
0:00
0:00
×
Best way to learn
"Hell Bent For Leather"
Autoscroll
slow
fast
+/-
esc
set tempo
stop
HELL BENT FOR LEATHER
                           As recorded by Judas Priest
                   (From the 1978 Album HELL BENT FOR LEATHER)

Words and Music by Glenn Tipton
Transcribed by www.mikesguitarsite.co.uk

Gtr I (E A D G B E) - 'K.K. Downing - Rhythm w/dist'
Gtr II (E A D G B E) - 'Glen Tipton - Rhythm / Lead w/dist'

  Intro
   Q.=88                             H.=H
  6/8
   Gtrs I, II
e|--------|--------|--------|--------|--------|--------|--------|------||
B|--------|--------|--------|--------|--------|--------|--------|------||
G|--------|--------|--------|--------|--------|--------|--------|------||
D|-2------|-3------|-4------|-5------|-6------|-7------|-3------|-2----||
A|-2------|-3------|-4------|-5------|-6------|-7------|-3------|-2----||
E|-0------|-1------|-2------|-3------|-4------|-5------|-1------|-0----||


   Faster Q=192
  4/4
   Gtr I
   PM  PM|   PM|         PM          PM  PM|   PM|
e|-----------------|---------------|-----------------|------------------|
B|-----------------|---------------|-----------------|------------------|
G|---------------5-|--7----5h6-6p5-|---------------5-|-(5)--------------|
D|---7-----7-----5-|--7----5h7-7p5-|---7-----7-----5-|-(5)-7p5-------7--|
A|-0---0-0---0-0---|-----0---------|-0---0-0---0-0---|---------0-3p0----|
E|-----------------|---------------|-----------------|------------------|
 |
 | Gtr II
e|-----------------|---------------|-----------------|------------------|
B|-----------------|---------------|-----------------|------------------|
G|-----------------|---------------|-----------------|-----------5---4--|
D|-----------------|---------------|-----------------|-----------5---4--|
A|-----------------|---------------|-----------------|-----------3---2--|
E|-----------------|---------------|-----------------|------------------|


   PM  PM|   PM|            PM           PM   PM|   PM|
e|-----------------|------------------|-------------------|------------------||
B|-----------------|------------------|-------------------|------------------||
G|---------------5-|-----7----5h6-6p5-|-----------------5-|-(5)--------------||
D|---7-----7-----5-|-----7----5h7-7p5-|-----7-----7-----5-|-(5)-7p5-------7--||
A|-0---0-0---0-0---|--------0---------|--0----0-0---0-0---|---------0-3p0----||
E|-----------------|------------------|-------------------|------------------||
 |
e|-----------------|------------------|-------------------|------------------||
B|-----------------|------------------|-------------------|------------------||
G|-2---------------|-(2)--------------|-(2)---------------|-(2)-------5---4--||
D|-2---------------|-(2)--------------|-(2)---------------|-(2)-------5---4--||
A|-0---------------|-(0)--------------|-(0)---------------|-(0)-------3---2--||
E|-----------------|------------------|-------------------|------------------||


    Verses
     PM  PM|   PM|            PM           PM   PM|   PM|
e||------------------|------------------|-------------------|-------------------|
B||o-----------------|------------------|-------------------|-------------------|
G||----------------5-|-----7----5h6-6p5-|-----------------5-|-(5)---------------|
D||----7-----7-----5-|-----7----5h7-7p5-|-----7-----7-----5-|-(5)-7p5-------7---|
A||o-0---0-0---0-0---|--------0---------|--0----0-0---0-0---|---------0-3p0-----|
E||------------------|------------------|-------------------|-------------------|
 |
e||------------------|------------------|-------------------|-------------------|
B||o-----------------|------------------|-------------------|-------------------|
G||--2---------------|-(2)--------------|-(2)---------------|-(2)---------------|
D||--2---------------|-(2)--------------|-(2)---------------|-(2)---------------|
A||o-0---------------|-(0)--------------|-(0)---------------|-(0)---------------|
E||------------------|------------------|-------------------|-------------------|


   PM  PM|   PM|         PM          PM  PM|   PM|
e|-----------------|---------------|-----------------|------------------||
B|-----------------|---------------|-----------------|------------------||
G|---------------5-|--7----5h6-6p5-|---------------5-|-(5)--------------||
D|---7-----7-----5-|--7----5h7-7p5-|---7-----7-----5-|-(5)-7p5-------7--||
A|-0---0-0---0-0---|-----0---------|-0---0-0---0-0---|---------0-3p0----||
E|-----------------|---------------|-----------------|------------------||


  Pre-Chorus
e|--------------|-----------------|----------------|-------------|
B|--------------|-----------------|----------------|-------------|
G|---------7----|-(7)-------5--7--|-(7)-------7----|-7p5--5--5---|
D|---7p5---7----|-(7)-7p5---5--7--|-(7)-7p5---7----|-7p5--5--5---|
A|-5-----5------|---------5-------|---------5------|------5--3---|
E|--------------|-----------------|----------------|-------------|


e|--------------|-----------------|--------------------|----------------------||
B|--------------|-----------------|--------------------|----------------------||
G|---------7----|-(7)-------5--7--|-(7)--------------9-|------12-12-(12)\---2-||
D|---7p5---7----|-(7)-7p5---5--7--|-(7)-7p5---8p6----9-|------12-12-(12)\---2-||
A|-5-----5------|---------5-------|---------6-----/7---|--/10-10-10-(10)\---0-||
E|--------------|-----------------|--------------------|----------------------||


 Chorus
   $
        PM------------------------|
e|------------------|-----------------|
B|------------------|-----------------|
G|-(2)--------------|-----------------|
D|-(2)--------------|-----------------|
A|-(0)--0-0-0-0-0-0-|-0-0-0-0-0-0-0---|
E|------------------|---------------3-|


e|---------------------|---------------------|
B|---------------------|---------------------|
G|---------------------|-------------------2-|
D|---------------2-5---|-------0-------0---2-|
A|-----2-5-3-(3)-------|-----0-----------2-0-|
E|-(3)---------------1-|-(1)-----3-(3)-------|


        PM------------------------|
e|------------------|-----------------|
B|------------------|-----------------|
G|-(2)--------------|-----------------|
D|-(2)--------------|-----------------|
A|-(0)--0-0-0-0-0-0-|-0-0-0-0-0-0-0---|
E|------------------|---------------3-|


                        1.
                To Coda
e|---------------------|----------------------||
B|---------------------|---------------------o||
G|---------------------|----------------------||
D|---------------2-5---|-------0-------0------||
A|-----2-5-3-(3)-------|-----0-----------2-0-o||
E|-(3)---------------1-|-(1)-----3-(3)--------||


                         Bridge
   2.
e|---------------------||------------|----------|----------|------|
B|---------------------||------------|----------|----------|------|
G|---------------------||------------|----------|----------|------|
D|-------0-------0---2-||-(2)--------|-3--------|-4--------|-5----|
A|-----0-----------2-2-||-(2)--------|-3--------|-4--------|-5----|
E|-(1)-----3-(3)-----0-||-(0)--------|-1--------|-2--------|-3----|


e|----------|-------------|----------|------------|------||
B|----------|-------------|----------|------------|------||
G|----------|-------------|----------|------------|-9----||
D|-6--------|-7------(7)S=|=3--------|-2----------|-9----||
A|-6--------|-7------(7)S=|=3--------|-2------2s7-|-7----||
E|-4--------|-5------(5)S=|=1--------|-0----------|------||


  Guitar Solo
   Gtr II
    T      T      T      T        T       T      T      T
e|-12p5h8-12p5h8-12p5h8-12p5h8-|-12p=5h8-12p5h8-12p5h8-12p5h8-|
B|-----------------------------|------------------------------|
G|-----------------------------|------------------------------|
D|-----------------------------|------------------------------|
A|-----------------------------|------------------------------|
E|-----------------------------|------------------------------|
 |
 | Gtr I
e|-----------------------------|------------------------------|
B|-----------------------------|------------------------------|
G|--2--------------------------|-(2)--------------------------|
D|--2--------------------------|-(2)--------------------------|
A|--0--------------------------|-(0)--------------------------|
E|-----------------------------|------------------------------|


    T      T      T      T        T       T      T      T
e|-12p5h7-12p5h7-12p5h7-12p5h7-|-12p=4h7-12p4h7-12p4h7-12p4h7----|
B|-----------------------------|---------------------------------|
G|-----------------------------|---------------------------------|
D|-----------------------------|---------------------------------|
A|-----------------------------|---------------------------------|
E|-----------------------------|---------------------------------|
 |
e|-----------------------------|---------------------------------|
B|-----------------------------|---------------------------------|
G|--9--------------------------|-(9)-----------------------------|
D|--9--------------------------|-(9)-----------------------------|
A|--7--------------------------|-(7)-----------------------------|
E|-----------------------------|---------------------------------|


    T      T      T      T        T       T      T      T
e|-12p3h7-12p3h7-12p3h7-12p3h7-|-12p=3h7-12p3h7-12p3h7-12p3h7-|
B|-----------------------------|------------------------------|
G|-----------------------------|------------------------------|
D|-----------------------------|------------------------------|
A|-----------------------------|------------------------------|
E|-----------------------------|------------------------------|
 |
e|-----------------------------|------------------------------|
B|-----------------------------|------------------------------|
G|-----------------------------|------------------------------|
D|--5--------------------------|-(5)--------------------------|
A|--5--------------------------|-(5)--------------------------|
E|--3--------------------------|-(3)--------------------------|


                                                   \1
    T      T      T      T        T       T
e|-12p2h5-12p2h5-12p2h5-12p2h5-|-12p=2h5-10p2h5h10p2-----||
B|-----------------------------|-------------------------||
G|-----------------------------|-------------------------||
D|-----------------------------|-------------------------||
A|-----------------------------|-------------------------||
E|-----------------------------|-------------------------||
 |
e|-----------------------------|-------------------------||
B|-----------------------------|-------------------------||
G|--7--------------------------|-(7)---------------------||
D|--7--------------------------|-(7)---------------------||
A|--5--------------------------|-(5)---------------------||
E|-----------------------------|-------------------------||


e|-17-----------------------------|-17--------------20p==19p17------|
B|----20b22---20b22---------------|-----20b20.5------------------19-|
G|------------------20pb21r==(20)-|---------------------------------|
D|--------------------------------|---------------------------------|
A|--------------------------------|---------------------------------|
E|--------------------------------|---------------------------------|
 |
 |                   PM----|                    PM-------|
e|--------------------------------|---------------------------------|
B|--------------------------------|---------------------------------|
G|--2---------(2)--------------2--|-(2)------------------------2----|
D|--2---------(2)--------------2--|-(2)------------------------2----|
A|--0---------(0)----0-----0---0--|-(0)---------0-0--0-0--0----0----|
E|--------------------------------|---------------------------------|


                                                                ~~
e|-17--------------------------------------|----------------------------------|
B|-----19b20r(19)p17h20p17------17h20---17-|-20--20----17---------------------|
G|---------------------------19------------|--------19-19b20---17-----(17)\---|
D|-----------------------------------------|----------------------------------|
A|-----------------------------------------|----------------------------------|
E|-----------------------------------------|----------------------------------|
 |
 |             PM---------------|                       PM----------|
e|-----------------------------------------|----------------------------------|
B|-----------------------------------------|----------------------------------|
G|-(2)--------------------------------2----|-(2)------------------------2-----|
D|-(2)--------------------------------2----|-(2)------------------------2-----|
A|-(0)---------0---0--0----0-----0----0----|-(0)--------0----0--0-0-0---0-----|
E|-----------------------------------------|----------------------------------|


e|--8----------8------------------------|----------------------------|
B|-----10b11-------[11]b13==(11)r(11)---|--7h=8p7p5-7p5--------------|
G|--------------------------------------|-----------------7p5\-------|
D|--------------------------------------|----------------------------|
A|--------------------------------------|----------------------------|
E|--------------------------------------|----------------------------|
 |
 |           PM------------------|                  PM-----------|
e|--------------------------------------|----------------------------|
B|--------------------------------------|----------------------------|
G|-(2)--------------------------------2-|-(2)----------------------2-|
D|-(2)--------------------------------2-|-(2)----------------------2-|
A|-(0)-------0---0---0--------0----0--0-|-(0)-------0---0---0--0-0-0-|
E|--------------------------------------|----------------------------|


e|---------------------------------|-------------------------------||
B|--5p=4---------------------------|-------------------------------||
G|-------7p5p4-----5p4-------------|-------------------------------||
D|---------------7-------7p5h7p5p4h|==5p=4---4---------------------||
A|---------------------------------|-------7---5h==7-3h5---3-2h3---||
E|---------------------------------|-------------------------------||
 |
 |         PM--------------|                 PM----------------|
e|---------------------------------|-------------------------------||
B|---------------------------------|-------------------------------||
G|-(2)-------------------------2---|-(2)---------------------------||
D|-(2)-------------------------2---|-(2)---------------------------||
A|-(0)-----0---0---0---0---0---0---|-(0)-----0---0---0---0---0-0---||
E|---------------------------------|-------------------------------||


  Bridge
                                      \0.5/    \0.5/
e|------------|------------|--------------------------|
B|------------|------------|--------------------------|
G|------------|------------|--------------------------|
D|------------|------------|-<7>----(<7>)----(<7>)----|
A|-5s7--------|-(7)--------|--------------------------|
E|------------|------------|--------------------------|
 |
e|------------|------------|--------------------------|
B|------------|------------|--------------------------|
G|------------|------------|--------------------------|
D|---2--------|--3---------|--4-----------------------|
A|---2--------|--3---------|--4-----------------------|
E|---0--------|--1---------|--2-----------------------|


     \0.5/    \0.5/    \0.5/    \0.5/
                                           ~~~~~
e|-------------------------------------|----------|
B|-------------------------------------|----------|
G|-------------------------------------|----------|
D|-(<7>)----(<7>)----(<7>)----(<7>)----|-(<7>)----|
A|-------------------------------------|----------|
E|-------------------------------------|----------|
 |
e|-------------------------------------|----------|
B|-------------------------------------|----------|
G|-------------------------------------|----------|
D|---5---------------------------------|---6------|
A|---5---------------------------------|---6------|
E|---3---------------------------------|---4------|


     ~~~~~~~~~~~~~~~~~~~~~~~~~~~~~~~~~~~~~~~~~~~~~~~~~~~~
e|-----------------|-------------------|----------------|
B|-----------------|-------------------|----------------|
G|-----------------|-------------------|----------------|
D|-(<7>)-----------|-(<7>)------(<7>)--|-(<7>)----------|
A|-----------------|-------------------|----------------|
E|-----------------|-------------------|----------------|
 |
e|-----------------|-------------------|----------------|
B|-----------------|-------------------|----------------|
G|-----------------|-------------------|----------------|
D|---7--------(7)S=|===3---------------|---2------------|
A|---7--------(7)S=|===3---------------|---2--------2s7-|
E|---5--------(5)S=|===1---------------|---0------------|


                                D.S. al Coda
                  \1____________________/
  ~~~~~~~
e|--------------|------------|---------------||
B|--------------|------------|----------x/---||
G|--------------|-0----------|-(0)------x/---||
D|-(<7>)--------|-0----------|-(0)------x/---||
A|--------------|------------|---------------||
E|--------------|------------|---------------||
 |
e|--------------|------------|---------------||
B|--------------|------------|---------------||
G|---9----------|------------|---------------||
D|---9----------|------------|---------------||
A|---7----------|------------|---------------||
E|--------------|------------|---------------||


 Outro
  &
  Gtr I
                               PM------------------------|
e|---------------------||------------------|-----------------|
B|---------------------||o-----------------|-----------------|
G|-------------------2-||--(2)-------------|-----------------|
D|-------0-------0---2-||--(2)-------------|-----------------|
A|-----0---2-(2)---2-0-||o-(0)-0-0-0-0-0-0-|-0-0-0-0-0-0-0---|
E|-(1)-----3-(3)-------||------------------|---------------3-|


                        1.
e|---------------------|-----------------------||
B|---------------------|----------------------o||
G|---------------------|-------------------2---||
D|---------------2-5---|-------0-------0---2---||
A|-----2-5-3-(3)-------|-----0-----------2-0--o||
E|-(3)---------------1-|-(1)-----3-(3)---------||


   2.
e|---------------------|---------------------|---------------------|--------*|
B|---------------------|---------------------|---------------------|--------*|
G|---------------------|---------5-(5)-5---5-|-(5)-----7-(7)-7---2-|-(2)----*|
D|-------0-------0-----|-----2-0-5-(5)-5---5-|-(5)-----7-(7)-7---2-|-(2)----*|
A|-----0-----------2-2-|-(2)-----3-(3)-3---3-|-(3)-2-2-5-(5)-5---0-|-(0)----*|
E|-(1)-----3-(3)-----0-|-(0)-------------3---|-----------------3---|--------*|


Tablature Legend
----------------
 h   - hammer-on
 p   - pull-off
 b   - bend
 pb  - pre-bend
 r   - bend release (if no number after the r, then release immediately)
 /\  - slide into or out of (from/to "nowhere")
 s   - legato slide
 S   - shift slide
  - natural harmonic
[n]  - artificial harmonic
n(n) - tapped harmonic
 ~   - vibrato
 tr  - trill
 T   - tap
 TP  - trem. picking
 PM  - palm muting
\n/  - tremolo bar dip; n = amount to dip
 \n  - tremolo bar down
 n/  - tremolo bar up
/n\  - tremolo bar inverted dip
 =   - hold bend; also acts as connecting device for hammers/pulls
 <>  - volume swell (louder/softer)
 x   - on rhythm slash represents muted slash
 o   - on rhythm slash represents single note slash

Misc Legend
-----------
 |  - bar
||  - double bar
||o - repeat start
o|| - repeat end
*|  - double bar (ending)
 :  - bar (freetime)
 $  - Segno
 &  - Coda
Tempo markers -  = BPM(8/16=s8/s16), where s8 = swing 8ths, s16 = swing 16ths


***************************************************************************************
* Generated using Power Tab Editor by Brad Larsen - http://powertab.guitarnetwork.org *
***************************************************************************************
Suggest correction
comments
print report bad tab
guest
You may want to rate the tab now too:
select rating
Wanna post a correction for this tab? Suggest correction