Oops, an error
Loading. Please wait.

Hell Is Home Tab

version 1
version 1

Whole song

Interactive

3,362 views 3 this week
no commentswrite comment
1 2 3 4 5
please rate
add to favorites
launch autoscroll
font size
0
reset
how to read this tab
guitar tuner
Autoscroll
slow
fast
+/-
esc
set tempo
stop
Help us to improve Ultimate-Guitar.com Take our survey!
×
                       Hell Is Home (intro)
                           demolition
                          Judas Priest
Guitar 1
Tabbed by Shvedkov K.S.

Drop D tuned down a whole step (C G C F A D)

D|--------------------------------------------------|
A|--------------------------------------------------|
F|--------------------------------------------------|
C|-------------------------------------7p--3-----3--|
G|-----------------------------------0--------------|
C|---0----------------------------0------------0----|

--------------------------|     |--------------------------|
---------------4----------|     |--------------------------|
--------------------2----*| 4x  |--------------------------|
-------------------------*|     |-------5-----8p--7--5-----|
------------0-------------|     |--------------------------|
--0------0----------------|     |--5-------5------------5--|


--------------------------||-----------------------------|
--------------------------||-----------------------------|
--------------------------||*----------------------------|
--------8-----------7-----||*---------------7p--3-----3--|
-----8-----8-----7-----7--||-------------0---------------|
--8-----------7-----------||---0------0------------0-----|

                               Singing starts
--------------------------||------------------------------------------|
---------------4----------||------------------------------------------|
--------------------2----*||*-----------------------------------------|
-------------------------*||*----------------------------7p--3-----3--|
------------0-------------||--------------------------0---------------|
--0------0----------------||---0-------------------0------------0-----|

-------------------------|----------------------------|
---------------4---------|----------------------------|
--------------------2----|----------------------------|
-------------------------|---------------7p--3-----3--|
------------0------------|------------0---------------|
--0------0---------------|--0------0------------0-----|

-------------------------|
-------------------------|
-------------------------|
--------5----------3-----|
-----5----------3-----3--|
--5----------3-----------|

  Pre-Chorus  (Whoa, don't ....heya identity)
-----------------------------------------------|
-----------------------------------------------|
--3-----------------------------3--------x--5--|
--3-----------------------------3--x--3--x--5--|
--1-----------------------------1--x--3--x--3--|
-----------------------------------x--3--------|


-------------------------|
-------------------------|
--3--3--x----------------|
--3--3--x--3--3--0--0----|
--1--1--x--3--3--0--0----|
-----------3--3--0--0----|


  (Whoa...Down here in hell everyone knows my name)
  Q.                                                 E  E  E  E  E
--------------------------------------------------------------------|
--------------------------------------------------------------------|
--3--------------------------------------------------3--------x--5--|
--3--------------------------------------------------3--x--3--x--5--|
--1--------------------------------------------------1--x--3--x--3--|
--------------------------------------------------------x--3--------|

------------------------||-----------------------------|
------------------------||-----------------------------|
--2------2--2--2--3--3--||*----------------------------|
--2------2--2--2--3--3--||*---------------7p--3-----3--|
--0------0--0--0--1--1--||-------------0---------------|
------------------------||---0------0------------0-----|

                              Play with distorsion
--------------------------||--------------------------------------|
---------------4----------||--------------------------------------|
--------------------2----*||--------------------------------------|
-------------------------*||--0--------------------0--3p--0--0----|
------------0-------------||--0--------------------0--3p--0--0----|
--0------0----------------||--0--------------------0--3p--0--0----|

----------------------------|------------------------|
----------------------------|------------------------|
----------------------------|------------------------|
-----0--3p--0--0--0h--3--0--|--0------0--3p--0--0----|(x3)
-----0--3p--0--0--0h--3--0--|--0------0--3p--0--0----|
-----0--3p--0--0--0h--3--0--|--0------0--3p--0--0----|


  Verse - Palm muted chords:  C C C C C C Eb Bb x2

--------------------------------------|
--------------------------------------|
--------------------------------------|
---------------0--3p--0--0--0h--3--0--|
---------------0--3p--0--0--0h--3--0--|
---------------0--3p--0--0--0h--3--0--|

this tab was maked in fuitar pro y only put in here  thanks to all metal maniacs

Duration Legend
---------------
W - whole
H - half
Q - quarter
E - 8th
S - 16th
T - 32nd
X - 64th
. - note dotted
|-n-|  - n-tuplets
Suggest correction
Give kudos to tab author, rate the tab!
1 2 3 4 5
comments
print report bad tab
guest
You may want to rate the tab now too:
select rating
Wanna post a correction for this tab? Suggest correction