Oops, an error
Loading. Please wait.

Hell Patrol Tab

version 1
version 1

Solo

Whole song

Interactive

2,774 views 6 this week
no commentswrite comment
1 2 3 4 5
x 5
add to favorites
launch autoscroll
font size
0
reset
how to read this tab
guitar tuner
Autoscroll
slow
fast
+/-
esc
set tempo
stop
Help us to improve Ultimate-Guitar.com Take our survey!
×
Difficulty
advanced
                band judas priest
song :hell patrol
album :painkiller

tuning :standar E
 play this part after play the twin guitar solos

solo glenn tipton
|--------------------------------------|
|--------------------------------------|
|--------------------------------------|
|--------------------------------------|
|-------------------5--------7----9----|
|---------5----------------------------|

|---------------------|--------------------|----------------------------------7--|
|---------------------|--------------------|--------------------<>7----7--10-----|
|---------------------|-----------9b-------|--9--7-----9-----7-------------------|
|----------------7----|--9-----------------|--------9-----9----------------------|
|--7--------9---------|--------------------|-------------------------------------|
|---------------------|--------------------|-------------------------------------|

|--<>7-----9-----10-----<>7-----9-----10-----|--9p--6-----9p-6---7--7--6-----------|
|-------7-----7------7-------7-----7------7--|---------7-------7----------7--7-6---|
|--------------------------------------------|-------------------------------------|
|--------------------------------------------|-------------------------------------|
|--------------------------------------------|-------------------------------------|
|--------------------------------------------|-------------------------------------|

|--------------------------|--------------------------------------|------------------------------|
|--------------------------|--------------------------------------|------------------------------|
|-----------4---<>4-4---4--|--------------------------------------|-----------4----4h--7p--4-4S--|
|--------4-----------------|--------------------------------------|--------4---------------------|
|-----5--------------------|--7--5--4--4--5--7--7--5--4--5--4-----|-----5------------------------|
|--7-----------------------|-----------------------------------6--|--7---------------------------|

|-------------------------------------------|-----------<>7-----------7--6--7--------|
|-------------------------------------------|--------7-------7--7--7-----------7-----|
|--3--4--6--7--6--4--3--4--6--6br~-L~-(6)~--|-----7-------------------------------7--|
|-------------------------------------------|--9-------------------------------------|
|-------------------------------------------|----------------------------------------|
|-------------------------------------------|----------------------------------------|

|---------------------------------------|--7------------7-10p-9p-6S--9-----|
|---------------------------------------|-----7-----7----------------------|
|--6h-9p-6-----------6h-9p-6---6-----6--|--------7-------------------------|
|-----------6h-9p-6----------9----9-----|----------------------------------|
|---------------------------------------|----------------------------------|
|---------------------------------------|----------------------------------|

|--21~----18~-----------21b~----|
|----------------19~------------|
|-------------------------------|
|-------------------------------|
|-------------------------------|


Tablature Legend
----------------
L - tied note
x - dead note
g - grace note
(n) - ghost note
> - accentuded note
NH - natural harmonic
AH - artificial harmonic
TH - tapped harmonic
SH - semi harmonic
PH - pitch harmonic
h - hammer on
p - pull off
b - bend
br - bendRelease
pb - preBend
pbr - preBendRelease
Suggest correction
comments
print report bad tab
guest
You may want to rate the tab now too:
select rating
Wanna post a correction for this tab? Suggest correction