Oops, an error
Loading. Please wait.

Hell Patrol Bass Tab

version 2
version 2

Whole song

  • Better accuracy, in the melodic and the rhythmic. ... Show more

Interactive

3,259 views 1 this week
no commentswrite comment
1 2 3 4 5
2 more votes to show rating
add to favorites
launch autoscroll
font size
0
reset
guitar tuner
Autoscroll
slow
fast
+/-
esc
set tempo
stop
Help us to improve Ultimate-Guitar.com Take our survey!
×
Difficulty
advanced
Band: judas priest 
Album: painkiller
Song: hell patrol
 version :2.0

This is one of the best song's of judas priest enoy and reated please
Tuning E :standar

Riff 1
G||----------------------------------|----------------------------------|---------|
D||----------------------------------|----------------------------------|---------|
A||--2----2--2--2--2--2--2--2--2--2--|--2----2--2--2--2--2--2--2--2--2--|--5------|(x2)
E||----------------------------------|----------------------------------|---------|

|-------------------------------|--------------------------------------|
|-------------------------------|--------------------------------------|
|--2----2--2--2--2--2--2--2-----|-----------0--------1--------1--1--1--|
|----------------------------2--|--2--2--2-----2--2-----2--2-----------|

Riff 2
|--------------------------------|--------------------------------|
|--------------------------------|--------------------------------|
|--2---2-2--2--2--2---2-2--2--2--|--2---2-2--2--2--10----9----7---|
|--------------------------------|--------------------------------|

|------------------------------|------------------------------| 
|------------------------------|------------------------------| (x3)
|--5----5--5--5--5----5--5--5--|------------------------------| 
|------------------------------|--5----5--5--5--5----5--5--5--|

Repeat the same riff(x3) but in the final bar of the second round, change it for the next part
|--------------------------| 
|--------------------------| repeat again the riff 2
|--------------------------| 
|--5----5--5--5--5----2-/--| 

Riff 3
|-------------|-----------|--------|----------------|
|-------------|-----------|--------|----------------|
|-------------|-----------|--------|----------------|
|--3----------|--5--------|--2-----|--3------5------|

Riff 4
|----------------------------------|--------------------------|
|----------------------------------|--------------------------|
|----------------------------------|--5--------4----2----0----|
|--7----7--7--7--7--7--7--7--7--7--|--------------------------|

|----------------------------------|----------------|
|----------------------------------|----------------|
|----------------------------------|----------------|
|--7----7--7--7--7--7--7--7--7--7--|--3------5------| 

Brideg
Riff 5
|--------------------------------------|
|--------------------------------------|
|--------------------------------------| (x4)
|--2--2--2--2--2--2--2--2--2--2--2--2--|

|--------------------------------------|
|--------------------------------------|
|--------------------------------------| (x4)
|--5--5--5--5--5--5--5--5--5--5--5--5--|

Solo riff 6

This part it's of the glenn solo but first play the same riff of verse 

|----------|---------|--------|-------------|--------|
|----------|---------|--------|-------------|--------|
|----------|---------|--------|-------------|--------|
|--3-------|--5------|--2-----|--3-----5----|--7-----|

|---------|---------|-------|-------|-------|
|---------|---------|-------|-------|-------|
|---------|---------|--4----|--5----|-------|
|--6------|--7------|-------|-------|--7----|

|---------|--------|-------|--------|-------|
|---------|--------|-------|--------|-------|
|---------|--4-----|-------|--------|-------|
|--2------|--------|--7----|--6-----|--7----|

|-------|--------|--------|-------|---------------|
|-------|--------|--------|--4----|---------------|
|--4----|--5-----|--7-----|-------|--4--5---------|
|-------|--------|--------|-------|-------6---2---|

This riff it's part of  the final bar of the main riff (riff 1)
Repear the riff and play this  

The final prechorus it's diffent and in this part the riff change 
Riff 7
|----------------------|--------------------|---------|--------|
|----------------------|--------------------|---------|--------|
|--2----3----4----5----|--6----7----9-------|---------|--------|
|----------------------|--------------------|--3------|--5-----|

|--------|-------|-------|--------|---------|
|--------|-------|-------|--------|---------|
|--------|-------|-------|--------|---------|
|--2-----|--3----|--3----|--5-----|--2------|

|--------------------------------|-------|--------|-------|
|--------------------------------|-------|--------|-------|
|--9----7----5----9----7----5----|-------|--------|-------|
|--------------------------------|--3----|--5-----|--2----|


 Play:
Riff 1 
Riff 2(x3)
Riff 3
Riff 2(x3)
Riff 3
Riff 4(2x)/chorus
Riff 5 (x4)
Riff 2
Verse riff /solo riff 2(x3)
Glenn tipton solo /riff 6
Riff 1 
Riff 7
Riff 4(2x)/chorus
Riff 5
Suggest correction
Give kudos to tab author, rate the tab!
1 2 3 4 5
comments
print report bad tab
guest
You may want to rate the tab now too:
select rating
Wanna post a correction for this tab? Suggest correction