Oops, an error
Loading. Please wait.

Hell Patrol Tab

version 2
version 2

Whole song

Interactive

14,800 views 27 this week
2 commentsread comments
1 2 3 4 5
excellent!
x 5
add to favorites
launch autoscroll
font size
0
reset
how to read this tab
guitar tuner
Tab Pro tools
  • play this tab
  • loop segment
  • change instrument
  • show fretboard
  • metronome
×
Best way to learn
"Hell Patrol"
Autoscroll
slow
fast
+/-
esc
set tempo
stop
Difficulty
advanced
Band: judas priest
Album: painkiller
Song: hell patrol
Tab guitar

Tuning E: standar

Legend:
 .  : palm muting
< > : pinch harmonics
 ~  : vibrato
 \  : slide down
( ) : ghost note (sustain)
 x  : fretting hand mute (percussive tone)


Intro
Riff 1
E||----------------------------------|----------------------------------|------------|
B||----------------------------------|----------------------------------|------------|
G||----------------------------------|----------------------------------|--7---------|
D||--9-------------------------------|--9-------------------------------|--7---------|
A||--9-------------------------------|--9-------------------------------|--5---------|
E||--7----7--7--7--7--7--7--7--7--7--|--7----7--7--7--7--7--7--7--7--7--|------------|

|--------------------------------|--------------------------------------|
|--------------------------------|--------------------------------------|
|--------------------------------|--------------------------------------|
|--9-----------------------------|--------------------------------------|
|--9----------------------9S--4--|-----------0--------1--------1--1--1--|
|--7----7--7--7--7--7--7--7S--2--|--2--2--2-----2--2-----2--2-----------|


Verse riff
Riff 2
|-----------------------------------|--------------------------------|---------------------------|
|-----------------------------------|--------------------------------|---------------------------|
|*----------------------------------|--------------------------------|--7------------7-----------|
|*--9---------------9---------------|--9-----------------------------|--7------------7-----------|
|---9---------------9---------------|--9---------------10----9----7--|--5---5--5--5--5----5--5--5|
|---7---7--7--7--7--7---7--7--7--7--|--7---7--7--7--7----------------|---------------------------|

|------------------------------|
|------------------------------|
|------------------------------|
|--7-------------7-------------|
|--7-------------7-------------|
|--5----5--5--5--5----5--5--5--|

|-----------------------------------|--------------------------------|---------------------------|
|-----------------------------------|--------------------------------|---------------------------|
|*----------------------------------|--------------------------------|--7------------7-----------|
|*--9---------------9---------------|--9-----------------------------|--7------------7-----------|
|---9---------------9---------------|--9---------------10----9----7--|--5---5--5--5--5----5--5--5|
|---7---7--7--7--7--7---7--7--7--7--|--7---7--7--7--7----------------|---------------------------|

|--------------------------|
|--------------------------|
|--------------------------|
|--7-------------4S--------| in the the final round repeat the first riff
|--7-------------4S--------|
|--5----5--5--5--2S--------|


Prechorus riff
G F # G F

Riff 3
|-------------|-----------|----------|----------------|
|-------------|-----------|----------|----------------|
|-------------|-----------|----------|----------------|
|--5----------|--7--------|--4-------|--5------7------|
|--5----------|--7--------|--4-------|--5------7------|
|--3----------|--5--------|--2-------|--3------5------|

Chorus
Riff 4

|---------------------------------|----------------------------|
|---------------------------------|----------------------------|
|---------------------------------|----------------------------|
|-9-------------------------------|--12--------11----9----7----|
|-9-------------------------------|--12--------11----9----7----|
|-7----7--7--7--7--7--7--7--7--7--|--10---------9----7----5----|

|----------------------------------|----------------|
|----------------------------------|----------------|
|----------------------------------|----------------|
|--9-------------------------------|--5------7------|
|--9-------------------------------|--5------7------| (x2)
|--7----7--7--7--7--7--7--7--7--7--|--3------5------|


Brideg
Riff 5
|--------------------------------------|-----------------------------------|
|--------------------------------------|-----------------------------------|
|--------------------------------------|-----------------------------------|
|-----------4--------2-----------------|-----------4--------2--------------|
|-----------------------4--2--3--2-----|-----------------------4--2--4~----|
|--2--2--2-----2--2-----------------5--|--2--2--2-----2--2-----------------|

Riff 6
|--------------------------------------|-----------------------------------|
|--------------------------------------|-----------------------------------|
|--------------------------------------|-----------------------------------|
|-----------7--------5-----------------|-----------7--------5--------------|
|-----------------------7--5--6--5-----|-----------------------7--5--6~----|
|--5--5--5-----5--5-----------------8--|--5--5--5-----5--5-----------------|

Solo riff 7
Part 1
Duel guitar
|----------------------------------|-------------------------------|
|-7-----5-----3-------7---8--5~----|---7-----5------7p-5-3~--------|
|----------------------------------|-------------------------------|
|----------------------------------|-------------------------------|
|----------------------------------|-------------------------------|
|----------------------------------|-------------------------------|
|
|----------------------------------|-------------------------------|
|----------------------------------|-------------------------------|
|-7-----6-----4-------7---9--6~----|---7-----6------7--6-4~--------|
|----------------------------------|-------------------------------|
|----------------------------------|-------------------------------|
|----------------------------------|-------------------------------|


|--5----3----2-------------|----------------------------|
|------------------5-------|----------------------------|
|--------------------------|----------------------------|
|--------------------------|----------------------------|
|--------------------------|-----9--7------7------------|
|--------------------------|-----------10-----10--9-7/--|
|
|--------------------------|----------------------------|
|--------------------------|----------------------------|
|--7----9----7-----6~~-----|---=====--------------------|
|--------------------------|----------------------------|
|--------------------------|----------------------------|
|--------------------------|----------------------------|

Repeat the previous part after play this this riff

Solo Riff 7
Part 2
|-------------------------------|----------------------------------------10----|
|-3~---3--5--7---5~----5--7--8--|--7~---7--8--10--10S12--12-12S14--14----12----|
|-------------------------------|----------------------------------------------|
|-------------------------------|----------------------------------------------|
|-------------------------------|----------------------------------------------|
|-------------------------------|----------------------------------------------|
|
|-------------------------------|----------------------------------------10----|
|-------------------------------|--------------7---7S8----8--8S10--10----12----|
|-4~---4--6--7---6~----6--7--9--|--7----7--9-----------------------------------|
|-------------------------------|----------------------------------------------|
|-------------------------------|----------------------------------------------|
|-------------------------------|----------------------------------------------|

Glenn tipton Solo riff 8

|----------------------|----------------------|--------------------------|
|----------------------|----------------------|--------------------------|
|----------------------|----------------------|--------------------------|
|----------------------|----------------------|-----------------------4--|
|-------4----5---------|---5---4--------4--5--|-4----5---7---5----7------|
|--7~-------------6----|-------------7--------|--------------------------|

|---------------------------|-----------------|
|---------------------------|-----------------|
|---------------------------|-----------------|
|---------------4-----------|-----------------| (x2)
|-------4---5------5-----5~-|---4-----------5-|
|--7------------------5-----|-------6----2----|


This riff it's part of  the final bar of the main riff (riff 1)
Repear the riff and play this
In the final bar

|--------------------------------------|------------------------------------|
|--------------------------------------|------------------------------------|
|-----4--------5--------6--------7-----|-----8--------9-----11~------(11)~--|
|--------4--------5--------6--------7--|--------8--------9------------------|
|--2--------3--------4--------5--------|--6--------7---------9~------(9)~---|
|--------------------------------------|------------------------------------|


 Play:
Riff 1
Riff 2(x3)
Riff 3
Riff 2(x3)
Riff 3
Riff 4(2x)/chorus
Riff 5 (x4)
Riff 6 x3)
riff 7 par 1 and 2
riff 8 glenn solo
Riff 1
Riff 4(2x)/chorus
Riff 5
comments
print report bad tab
2 comments total.
0 reply
vreemdevince wrote on October 25 2010, 09:56 am

Must say I expected the tab to be more complicated, not sure wether this one is 100% accurate but it sounds good to me.
Thumbs up

0 reply
R?bikscr?e wrote on February 26 2015, 11:46 am

The first chord of the verse is definitely a minor double-stop, not a power chord. So a B and a D note.

I want to post or [tab]
guest
You may want to rate the tab now too:
select rating
Please do not post tabs as comments. Select "correction" instead!